Log in

One click and you are in

Login with Facebook Login with Google

Why sign up and log in

Guitar Tabs Explorer
Billie Eilish chords for Wish you were gay ukulele

Wish You Were Gay Ukulele chords by Billie Eilish

Billie Eilish chords for Wish you were gay ukulele

Guitar chords with lyrics

  • Difficulty: Beginner
Tuning: G C E A (G C E A)


Verse:
"Baby, I don't feel so good," six words you never understood...
  Am   D7   G    Em
A|-0-------3-----|---------2-----|
E|-0-------2-----|-3-------3-----|
C|-0---x---2---x-|-2---x---4---x-| x2
G|-2---x-------x-|-0---x-------x-|

I laugh along like nothing's wrong, four days has never felt so long
  Am     D7      GM7    Em
A|-0---------------------|------2----------2-----|
E|--------0----------2---|----3---2------3---0---|
C|------0---x-2----0---x-|----------x-4--------x-|
G|----2-----x----2-----x-|-0--------x----------x-|

If three's a crowd and two was us, one slipped away
  Am     D7      G
A|-0---------------------|------2----------------|
E|--------0----------2---|----3-------3----------|
C|------0---x-2----0---x-|----------x-2----------|
G|----2-----x----2-----x-|-0------0-x-0----------|


Chorus:
I just wanna make you feel okay...
  Am  D7  G    Em D G
A|-0-0---3-3---------|-2-2-----|
E|-0-0---2-2---3-3---|-3-3-2-3-|
C|-0-0-x-2-2-x-2-2-x-|-4-4-2-2-| x3
G|-2-2-x-----x-0-0-x-|-----2-0-|

I just kinda wish you were gay
  Am  D7  G
A|-0-0---3-3---------|
E|-0-0---2-2---3-3---|
C|-0-0-x-2-2-x-2-2-x-|
G|-2-2-x-----x-0-0-x-|


Verse 2:
Is there a reason we're not through ...
  Am     D7      GM7    Em
A|-0---------------------|------2----------2-----|
E|--------0----------2---|----3---2------3---0---|
C|------0---x-2----0---x-|----------x-4--------x-| x3
G|----2-----x----2-----x-|-0--------x----------x-|

I ate alone at 7, you were six minutes away
  Am     D7      G
A|-0---------------------|------2----------------|
E|--------0----------2---|----3-------3----------|
C|------0---x-2----0---x-|----------x-2----------|
G|----2-----x----2-----x-|-0------0-x-0----------|


Chorus:
How am I supposed to make you feel okay...
  Am  D7  G    Em D G
A|-0-0---3-3---------|-2-2-----|
E|-0-0---2-2---3-3---|-3-3-2-3-|
C|-0-0-x-2-2-x-2-2-x-|-4-4-2-2-| x3
G|-2-2-x-----x-0-0-x-|-----2-0-|

I just kinda wish you were gay
  Am  D7  G
A|-0-0---3-3--------------|
E|-0-0---2-2---3-3---3----|
C|-0-0-x-2-2-x-2-2-x-2----|
G|-2-2-x-----x-0-0-x-0----|


Bridge:
To spare my pride...
  Am  D7  G    Em D G
A|-0-0---3-3---------|-2-2-----|
E|-0-0---2-2---3-3---|-3-3-2-3-|
C|-0-0-x-2-2-x-2-2-x-|-4-4-2-2-| x3
G|-2-2-x-----x-0-0-x-|-----2-0-|

And I can't stand another day
  Am      D7
A|-0-0---0-0---|-3-3---3-3-3-3-|
E|-0-0---0-0---|-2-2---2-2-2-2-|
C|-0-0-x-0-0-x-|-2-2-x-2-2-2-2-|
G|-2-2-x-2-2-x-|-----x---------|


Soft-Chorus:
I just wanna make you feel okay...
  Am   D7   G
A|-0-------3-----|---------------|
E|-0-------2-----|-3-------------|
C|-0---x---2---x-|-2-------------| x2
G|-2---x-------x-|-0-------------|


Chorus:
I can't tell you how much I wish I didn't wanna stay....
  Am  D7  G    Em D G
A|-0-0---3-3---------|-2-2-----|
E|-0-0---2-2---3-3---|-3-3-2-3-|
C|-0-0-x-2-2-x-2-2-x-|-4-4-2-2-| x3
G|-2-2-x-----x-0-0-x-|-----2-0-|


Outro:
I just kinda wish you were gay
  Am   D7   G
A|-0-------3-----|---------------|
E|-0-------2-----|-3-------------|
C|-0---x---2---x-|-2-------------|
G|-2---x-------x-|-0-------------|


************************************

| x Slap

************************************

Almost there ...

Sign in to get your own page with links to favourite songs and more. You are just one click away...

Login with Facebook Login with Google