Log in

One click and you are in

Login with Facebook Login with Google

Why sign up and log in

Guitar Tabs Explorer
Billie Eilish guitar tabs for When the partys over

Guitar tabs

Tuning: Standard (E A D G B E)

Difficulty: Intermediate


Intro:

e|------0--|-(0)----0--|-----|-----|-0-2-|-4-2-|-7---0-|-(0)-|-(0)-|
B|-5--4----|------4----|-4-2-|-(2)-|-----|-----|---7---|-----|-----|
G|---------|-----------|-----|-----|-----|-----|-------|-----|-----|
D|---------|-----------|-----|-----|-----|-----|-------|-----|-----|
A|---------|-----------|-----|-----|-----|-----|-------|-----|-----|
E|---------|-----------|-----|-----|-----|-----|-------|-----|-----|

Verse:

e|--------|---------|-------|-----|-----|-----|------|-----0-|
B|--------|---------|-----0-|-(0)-|-0-2-|-0-2-|-0--2-|-0-2---|
G|------1-|-(1)---1-|---1---|-----|-----|-----|------|-------|
D|-2--4---|-----4---|-4-----|-----|-----|-----|------|-------|
A|--------|---------|-------|-----|-----|-----|------|-------|
E|--------|---------|-------|-----|-----|-----|------|-------|

e|-0--2-4-|-(4)-2-4-|-2-4-7-|-(7)-|-7-9-|-7-9--7-|-9--7-9-|-12-|
B|--------|---------|-------|-----|-----|--------|--------|----|
G|--------|---------|-------|-----|-----|--------|--------|----|
D|--------|---------|-------|-----|-----|--------|--------|----|
A|--------|---------|-------|-----|-----|--------|--------|----|
E|--------|---------|-------|-----|-----|--------|--------|----|


Pre-Chorus:

e|-12-11-9-11-9-7-|----7---|----------|-----|
B|----------------|-9----9-|-(9)------|-----|
G|----------------|--------|-----9--9-|-(9)-|
D|----------------|--------|----------|-----|
A|----------------|--------|----------|-----|
E|----------------|--------|----------|-----|


Chorus:

e|-------|------------------|--------------|-----|--0-2-4--5-4-|-5--4-2-4-2-4-|-0--4-2-4--0-|---|
B|---7-9-|-10-9-10--9-7-9-7-|-9------9-7-9-|-----|-------------|--------------|-------------|-2-|
G|-9-----|------------------|-----9--------|-9-6-|-------------|--------------|-------------|---|
D|-------|------------------|--------------|-----|-------------|--------------|-------------|---|
A|-------|------------------|--------------|-----|-------------|--------------|-------------|---|
E|-------|------------------|--------------|-----|-------------|--------------|-------------|---|


Verse:

e|--------|---------|-------|-----|-----|-----|------|-----0-|
B|--------|---------|-----0-|-(0)-|-0-2-|-0-2-|-0--2-|-0-2---|
G|------1-|-(1)---1-|---1---|-----|-----|-----|------|-------|
D|-2--4---|-----4---|-4-----|-----|-----|-----|------|-------|
A|--------|---------|-------|-----|-----|-----|------|-------|
E|--------|---------|-------|-----|-----|-----|------|-------|

e|-0--2-4-|-(4)-2-4-|-2-4-7-|-(7)-|-7-9-|-7-9--7-|-9--7-9-|-12-|
B|--------|---------|-------|-----|-----|--------|--------|----|
G|--------|---------|-------|-----|-----|--------|--------|----|
D|--------|---------|-------|-----|-----|--------|--------|----|
A|--------|---------|-------|-----|-----|--------|--------|----|
E|--------|---------|-------|-----|-----|--------|--------|----|


Pre-Chorus:

e|-12-11-9-11-9-7-|----7---|----------|-----|
B|----------------|-9----9-|-(9)------|-----|
G|----------------|--------|-----9--9-|-(9)-|
D|----------------|--------|----------|-----|
A|----------------|--------|----------|-----|
E|----------------|--------|----------|-----|


Chorus:

e|-------|------------------|--------------|-----|--0-2-4--5-4-|-5--4-2-4-2-4-|-0--4-2-4--0-|---|
B|---7-9-|-10-9-10--9-7-9-7-|-9------9-7-9-|-----|-------------|--------------|-------------|-2-|
G|-9-----|------------------|-----9--------|-9-6-|-------------|--------------|-------------|---|
D|-------|------------------|--------------|-----|-------------|--------------|-------------|---|
A|-------|------------------|--------------|-----|-------------|--------------|-------------|---|
E|-------|------------------|--------------|-----|-------------|--------------|-------------|---|


Bridge:

e|-0----0-|-0--0-------|---|----0-|-0--0---4-|-4--2-0-2-|-(2)-0-|-(0)-|
B|----2---|-------2--2-|-0-|-2----|------2---|----------|-------|-----|
G|--------|------------|---|------|----------|----------|-------|-----|
D|--------|------------|---|------|----------|----------|-------|-----|
A|--------|------------|---|------|----------|----------|-------|-----|
E|--------|------------|---|------|----------|----------|-------|-----|

e|-2--2--4-|-(4)--0---|-2-4-0-|-(0)----|----|
B|---------|--------2-|-------|------4-|--2-|
G|---------|----------|-------|--------|----|
D|---------|----------|-------|--------|----|
A|---------|----------|-------|--------|----|
E|---------|----------|-------|--------|----|


Pre-Chorus:

e|-0-------|----------|--------|
B|---4-2-4-|-2-0----0-|--------|
G|---------|-----1----|-1----1-|
D|---------|----------|---4----|
A|---------|----------|--------|
E|---------|----------|--------|


Chorus:

e|-------|------------------|--------------|-----|--0-2-4--5-4-|-5--4-2-4-2-4-|-0--4-2-4--0-|---|
B|---7-9-|-10-9-10--9-7-9-7-|-9------9-7-9-|-----|-------------|--------------|-------------|-2-|
G|-9-----|------------------|-----9--------|-9-6-|-------------|--------------|-------------|---|
D|-------|------------------|--------------|-----|-------------|--------------|-------------|---|
A|-------|------------------|--------------|-----|-------------|--------------|-------------|---|
E|-------|------------------|--------------|-----|-------------|--------------|-------------|---|

************************************

| (n) Ghost note

************************************

Other versions of When The Partys Over

When the partys overChords
When the partys over (Ver. 2)Chords
When the partys over (Ver. 3)Chords
When the partys over (Ver. 4)Chords
When the partys over (Ver. 5)Chords
When the partys over acoustic ukuleleChords
When the partys over ukuleleChords
When the partys over (Ver. 2)Tabs
When the partys over acousticTabs

↓ Add and view comments below ↓

What do you think about this song and these tabs?

Add your comments, questions, rant or a thumbs up below.

Almost there ...

Sign in to get your own page with links to favourite songs and more. You are just one click away...

Login with Facebook Login with Google