Log in

One click and you are in

Login with Facebook Login with Google

Why sign up and log in

Guitar Tabs Explorer
Billie Eilish bass tabs for When the partys over

When The Partys Over bass tab by Billie Eilish

Billie Eilish bass tabs for When the partys over

Bass tabs

Tuning: Standard (E A D G)

The bass, from what i can tell, only plays during the chorus and repeats the same pattern
you could probably play it throughout most of the song, though

these notes match up with the chords the majority of the song

Everything is repeated so this can be considered the whole song lol
Intro:
Doesn't play


Verse 1:

G|--------------------------|
D|--------------------------| x4
A|--------4-----2-----0-----|
E|--2-----------------------|
    |.    |.    |.    |.


Chorus:

G|--------------------------|
D|--------------------------| x3
A|--------4-----2-----0-----|
E|--2-----------------------|
    |.    |.    |.    |.


Verse 2:

G|--------------------------|
D|--------------------------| x4
A|--------4-----2-----0-----|
E|--2-----------------------|
    |.    |.    |.    |.


Chorus:

G|--------------------------|
D|--------------------------| x3
A|--------4-----2-----0-----|
E|--2-----------------------|
    |.    |.    |.    |.


Bridge:
Doesn't play


Outro:
Doesn't play

↓ Add and view comments below ↓

What do you think about this song and these tabs?

Add your comments, questions, rant or a thumbs up below.

Almost there ...

Sign in to get your own page with links to favourite songs and more. You are just one click away...

Login with Facebook Login with Google