Log in

One click and you are in

Login with Facebook Login with Google

Why sign up and log in

Guitar Tabs Explorer
Billie Eilish chords for When the partys over acoustic ukulele

When The Partys Over Acoustic Ukulele chords by Billie Eilish

Billie Eilish chords for When the partys over acoustic ukulele

Guitar chords

Tuning: G C E A (G C E A)

Key: C

Difficulty: Intermediate
Intro:
A|-5--7--8--7--8--7--5|-5--7--8--7--12-7--5|
E|-6--8--10-8--8--8--6|-6--8--10-8--8--8--6|
C|-5--7--9--7--9--7--5|-5--7--9--7--9--7--5|
G|--------------------|--------------------|


Verse:
A|----0-0-0-3|--5---5---5---5-8-|----0-0-0-3|--5---5----5---5-8|
E|-1-3-3-3---|8-6-8-5-8-8-8-6---|-1-3-3-3---|8-8-6-8-5--8-8-8-6|
C|-----------|--5---5---5---5---|-----------|--5---5----5---5--|
G|-----------|------7---5-------|-----------|------7----5------|


Chorus:
A|8-------0--0-3-0------|----0--1-0-1-0--0--0--|0--0---|0--0----|
E|--10-10--------1--3--1|1-3----3------3-1-3--1|1-3-1--|1-3-1--1|
C|------12-------0--4--2|-------2--------2-----|0-----2|2----2--|
G|-9-9-----------------3|-------0--------2-----|2-----3|2----3--|


Verse:
A|----0-0-0-3|--5---5---5---5-8-|----0-0-0-3|--5---5----5---5-8|
E|-1-3-3-3---|8-6-8-5-8-8-8-6---|-1-3-3-3---|8-8-6-8-5--8-8-8-6|
C|-----------|--5---5---5---5---|-----------|--5---5----5---5--|
G|-----------|------7---5-------|-----------|------7----5------|


Chorus:
A|8-------0--0-3-0------|----0--1-0-1-0--0--0--|0--0---|0--0----|
E|--10-10--------1--3--1|1-3----3------3-1-3--1|1-3-1--|1-3-1--1|
C|------12-------0--4--2|-------2--------2-----|0-----2|2----2--|
G|-9-9-----------------3|-------0--------2-----|2-----3|2----3--|


Bridge:
A|----0-0-0-3|--5---5---5---5-8-|----0-0-0-3|-5---5----5---5-8|
E|-1-3-3-3---|8-6-8-5-8-8-8-6---|-1-3-3-3---|8-6-8-5-8--7-8-6-|
C|-----------|--5---5---5---5---|-----------|-5---5----5---5--|
G|-----------|------7---5-------|-----------|-----7----5------|


Chorus:
A|8-------0--0-3-0------|----0--1-0-1-0--0--0--|0--0---|0--0----|
E|--10-10--------1--3--1|1-3----3------3-1-3--1|1-3-1--|1-3-1--1|
C|------12-------0--4--2|-------2--------2-----|0-----2|2----2--|
G|-9-9-----------------3|-------0--------2-----|2-----3|2----3--|

A|----------|----1-1-0|---------0|-0-------|-----|--------|
E|--1--1----|----1-1-1|--1--1----|-1-3-1-1-|1----|-3-5-1-0|
C|2--2-2-2-0|-0-------|2--2-2-2--|-0-----2-|2----|--------|
G|0----2----|-2-------|0----2----|-2-----3-|3----|--------|

A|8-------0--0-3-0------|----0--1-0-1-0--0--0--|0--0---|0--0---|
E|--10-10--------1--3--1|1-3----3------3-1-3--1|1-3-1--|1-3-1--|
C|------12-------0--4--2|-------2--------2-----|0-----2|2----2-|
G|-9-9-----------------3|-------0--------2-----|2-----3|2----3-|

Almost there ...

Sign in to get your own page with links to favourite songs and more. You are just one click away...

Login with Facebook Login with Google