Search tabs and chords

Search for song, artist or band

Log in

One click and you are in

Login with Facebook Login with Google

Why sign up and log in

Guitar Tabs Explorer
Billie Eilish guitar tabs for When the partys over acoustic

When The Partys Over Acoustic tab by Billie Eilish

Billie Eilish guitar tabs for When the partys over acoustic

Guitar tabs

  • Capo on 2nd
Tuning: Standard (E chord diagramEE A chord diagramAA D chord diagramDD G chord diagramGG B chord diagramBB E chord diagramEE)

Difficulty: Advanced

Intro:

e|---------------------------------------------------------------------------|
B|--3--2--3--2--3--2--2h3---3--5--7--5--10--5--3-----------------------------|
G|--4--2--4--2--2--2--2-----4--6--7--6--11--6--4-----------------------------|
D|-----2-----2-----2---------------------------------------------------------|
A|--------2-----5------------------------------------------------------------|
E|--3-----------------3-----3--5--7--5--10--5--3-----------------------------|
Verse:

e|---------------------------------------------------------------------------|
B|-------------------------------------------------------------3-------------|
G|-----------------------------2--2h4--2--2h4--2--2h4--2--2h4----------------|
D|--0--2--2h4--2--2h4--2--2h4-----0-------2---------------0------------------|
A|--2-----2-------5----0------------------2----0--5----0----------4/5-4/5-4/5|
E|--3---------------------3-------3-----------------------3------------------|

e|------------------------5-----5/7--5--7--5--7--5--5h7/10-------------------|
B|--3--5--7--5------5--3-----3--0----5--7--5--7--5--0------------------------|
G|--4--6--7--6--11--6--4--------0----6--7--6--7--6--0------------------------|
D|--------------12-------------------------7---------------------------------|
A|---------------------------------------------------------------------------|
E|--3--5--7--5--10--5--3--------3----5--7--------5---------------------------|


Chorus:

e|--10--9--7--9--7--5--2--5--2-------------------0--2--3p2--3--2p0--0h2p0-2--|
B|------------------------------3-------------3--------0------------0-------3|
G|--11--9--7--9--7--0--2--6--2--0-----4--2h4--0--------0---------------------|
D|------------------------------------0--0-----------------------------------|
A|------------------------------------------------------------------2--------|
E|---------------------------------3-----3----3------------------------------|

e|--2p0h2-----------------0--2--3p2--3--2p0--0h2p0-2----2p0h2----------------|
B|--3------3--0--------3--------0------------0-------3--3------3--0--------3-|
G|--2---------0--0-----0--------0-----------------------2---------0--0-----0-|
D|------------------0---------------------------------------------------0----|
A|-------------------------------------------2-------------------------------|
E|------------3--------3------------------------------------------3--------3-|

e|---------------------------------------------------------------------------|
B|--3--2p3-------------------------------------------------------------------|
G|--0--0----2----------------------------------------------------------------|
D|---------------------------------------------------------------------------|
A|---------------------------------------------------------------------------|
E|---------------------------------------------------------------------------|

Verse:

e|--------------------------------0h2p0-----0---------------------------------|
B|---------------------------------------3-----2h3-----0---------------------3|
G|-----------------------------2---------------0----2--0--2h4-2--2h4--2--2h4--|
D|--0--2--2h4--2--2h4--2--2h4--------------------------0--2--------------0----|
A|--2-----2-------5----0----------------------------------2---0--5----0-------|
E|--3---------------------3----------------------------3-----------------3----|

e|--3p2p0-----------------------------------5------------------5/7--5--7------|
B|---------3--2h3-----3--5--7--5--10--5--3------------------3--0----5--7------|
G|------------0----2--4--6--7--6--11--6--4---------------------0----6--7------|
D|----------------------------------------------------------------------------|
A|---------------------------------------------/9----9---9--------------------|
E|--------------------3--5--7--5--10--5--3-----/10-10--10------3----5--7------|

e|--5--7--5--5h7/10-----------------------------------------------------------|
B|--5--7--5--0----------------------------------------------------------------|
G|--6--7--6--0----------------------------------------------------------------|
D|--7-------------------------------------------------------------------------|
A|----------------------------------------------------------------------------|
E|--------5-------------------------------------------------------------------|


Chorus:

e|--10--9--7--9--7--5--2--5--2-------------------0--2--3p2--3--2p0--0h2p0-2--|
B|------------------------------3-------------3--------0------------0-------3|
G|--11--9--7--9--7--0--2--6--2--0-----4--2h4--0--------0---------------------|
D|------------------------------------0--0-----------------------------------|
A|------------------------------------------------------------------2--------|
E|---------------------------------3-----3----3------------------------------|

e|--2p0h2-----------------0--2--3p2--3--2p0--0h2p0-2----2p0h2----------------|
B|--3------3--0--------3--------0------------0-------3--3------3--0--------3-|
G|--2---------0--0-----0--------0-----------------------2---------0--0-----0-|
D|------------------0---------------------------------------------------0----|
A|-------------------------------------------2-------------------------------|
E|------------3--------3------------------------------------------3--------3-|


Bridge:

e|--------------------------------------------------------0p2--0p2--0--------------|
B|--2-2-2--0--3--3p0-----------------------0--3--3--3--0-------3------3--3-----3-3-|
G|--0-0-0--0-----2----2--2--2--2--2--2--2--0--------2----------2---------0--0--0-0-|
D|---------0-------------4--4--4--0--0--0--0-----------------------------0---------|
A|---------------2-------5--------------------------2------------------------------|
E|--3------0----------------------3-----2--0-----------------------------3---------|

e|---------------------------------------------------------------------------------|
B|-----5--5-----5h7--5--3p0---3--3-----5h7----------0--3--3--2-3-------------------|
G|-----6--6--7--6----6--0---0-0--0-----6----6h7--6--0--0--0--0-0-------------------|
D|-----7--7-----7-------0--------------7----7-------0--0--0------------------------|
A|---------------------------------------------------------------------------------|
E|--4-------------------3-----------4---------------3------------------------------|


Chorus:

e|--------------------------------------------------------------------------------------|
B|--3h2--0h2p0-------------------------3--5/7--8--7--8--7-----7-----7-------------------|
G|--0-----------2------2------------0----------7-----------9--7--9-----7--11------11----|
D|--0-------------2h4-----2h4--2h4--4-------------------------------------12--14------12|
A|----------------2-------5--------------------7----------------------------------------|
E|--3-------------------------------3-------------------------7-----------10------------|

e|---------------------|
B|--0------------------|
G|--0------------------|
D|--0------------------|
A|---------------------|
E|--3------------------|


************************************

| h   Hammer-on
| p   Pull-off
| r   Release
| /   Slide up
| \   Slide down

************************************

Other versions of When The Partys Over Acoustic

When the partys overChords
When the partys over (Ver. 2)Chords
When the partys over (Ver. 3)Chords
When the partys over (Ver. 4)Chords
When the partys over acoustic ukuleleChords
When the partys over ukuleleChords
When the partys overTabs
When the partys over (Ver. 2)Tabs

Almost there ...

Sign in to get your own page with links to favourite songs and more. You are just one click away...

Login with Facebook Login with Google