Log in

One click and you are in

Login with Facebook Login with Google

Why sign up and log in

Guitar Tabs Explorer
Billie Eilish guitar tabs for When the partys over (Ver. 2)

When The Partys Over tab by Billie Eilish (Ver. 2)

Billie Eilish guitar tabs for When the partys over (Ver. 2)

Guitar tabs

Tuning: Standard (E A D G B E)

https://www.youtube.com/watch v=PolTdm_lcVU


Intro:
e|---------------------------------------------------------------------------|
B|-3-2-3-2-3-2-2h3----3--5--7--5--10--5--3-----------------------------------|
G|-4-2-4-2-4-2-2------4--6--7--6--11--6--4-----------------------------------|
D|---------------------------------------------------------------------------|
A|---0-2-0-5-0---------------------------------------------------------------|
E|-3-----------3------3--5--7--5--10--5--3-----------------------------------|
Verse:
e|---------------------------------------------------------------------------|
B|------------------------------------------------3--------------------------|
G|---------------------2--2-2h4-2-2h4-2-2h4-2-2h4----------------------------|
D|-0-2-2h4-2-2h4-2-2h4------0-----------------0------------------------------|
A|-2-0-2-----5---0----------0---0-2---0-5---0-0------4/5-4/5-4/5-4/5---------|
E|-3---------------3--------3-----------------3------------------------------|

e|--------------2-5------------------------5/7-5--5-7-5-7-5-5h7-7/10---------|
B|-3-5-7-5----5-3--------------7-------3----------5-7-5-7-5------------------|
G|-4-6-7-6-11-6-4---------*12*--------------------4-7-6-7-6------------------|
D|---------12--------*7*------------------------------7-0--------------------|
A|--------------------------------*7*----------------------------------------|
E|-3-5-7-5-10-5-3--------------------------3------5-7-----5------------------|


Chorus:
e|-10-9-7-9-7-5-2/5\2---------------0---2--3p2-3-2p0--0h2p0-2-----2p0-2------|
B|---------------------3--------0h3--------0------------------3---3------3---|
G|-11-9-7-9-7-6-2/6\2--4----4---0-----0----0----------------------2----------|
D|--------------------------0-0-----------------------------------0----------|
A|----------------------------------------------------2----------------------|
E|------------------------3-3--------------0---------------------------------|

e|----------0-2-3p2-3-2p0-0h2p0-2---2p0-2------------------------------------|
B|-0------3-----0-----------------3-3-----3--0-----3-3-2h3-------------------|
G|-0-0----0-----0-------------------2--------0-0---0-0-0---0-----------------|
D|-0---0----------------------------0--------0---0-----------0---------------|
A|------------------------2--------------------------------------------------|
E|-3------------0----------------------------3-------------------------------|

Verse:
e|-----------------------0h2p0---0--------------------------------3p2p0------|
B|-----------------------------3---2h3--------------------------3-------3p0--|
G|---------------------2-----------0--2---2h4-2-2h4-2-2h4-2-2h4--------------|
D|-0-2-2h4-2-2h4-2-2h4-------------0----0-0-----------------0----------------|
A|-2-0-2-----5---0------------------------0---0-2---0-5---0-0----------------|
E|-3---------------3----------------------3-----------------3----------------|

e|---------------------5/7-5--5-7-5-7-5-5h7-7/10-----------------------------|
B|--2h3-----------------------5-7-5-7-5--------------------------------------|
G|--2---2---------------------4-7-6-7-6--------------------------------------|
D|-0------0-----------------------7-0----------------------------------------|
A|------------9--9--9--------------------------------------------------------|
E|----------/10-10-10--3------5-7-----5--------------------------------------|


Chorus:
e|-10-9-7-9-7-5-2/5\2---------------0---2--3p2-3-2p0--0h2p0-2-----2p0-2------|
B|---------------------3--------0h3--------0------------------3---3------3---|
G|-11-9-7-9-7-6-2/6\2--4----4---0-----0----0----------------------2----------|
D|--------------------------0-0-----------------------------------0----------|
A|----------------------------------------------------2----------------------|
E|------------------------3-3--------------0---------------------------------|

e|----------0-2-3p2-3-2p0-0h2p0-2---2p0-2------------------------------------|
B|-0------3-----0-----------------3-3-----3--0-----2-2---3-------------------|
G|-0-0----0-----0-------------------2--------0-0---0-0-0---------------------|
D|-0---0----------------------------0--------0---0-----0---0-----------------|
A|------------------------2--------------------------------------------------|
E|-3------------0----------------------------3-------------------------------|


Bridge:
e|-----------------------------------0h2--0h2-0--0---------------------------|
B|-0-3-3-3p0--------------0-3-0--3-0------3------3-3--3-3--------5-5---5h7-5-|
G|-0-----2---2--2-2--2-2--0------2--------2------0----0-0--------6---7-------|
D|-0-----0------4-4--2-2---------0--------0---------------0------7-----------|
A|-------2------5----------------2-----------------------------0-------------|
E|-0-----------------3-2--0----------------------3-----------4---------------|

e|---------------------------------------------------------------------------|
B|----2p0----3-3--------5--5h7-----------0-3-3-2h3---------------------------|
G|-7--0------0-0--------6---------6h7-6--0-----2----0------------------------|
D|----0---0------0------7-------7--------0-----0------0----------------------|
A|-------------------0-------------------------------------------------------|
E|----0------------4---------------------3-----------------------------------|


Chorus:
e|---------------------------------------------------------------------------|
B|-3p2p0h2p0------------------------3-5-5/7---7-8-7----7---7-----------------|
G|-0---------h2-------2-----------------------------9--7-9---7--11----11-----|
D|-0-------------2h4--0-2h4-2h4---4-----------------------------12-14----12\-|
A|---------------2------5-------------------7--------------------------------|
E|-3----------------------------3----------------------7--------10-----------|

e|-------*12*----------------------------------------------------------------|
B|-0-----------*7*-*20*-*19*-*20*-*19*--------*19*------*19*-----------------|
G|-0-*7*-------------------------------*21*-------*21*------*19*-*23*--------|
D|-0------------------------------------------------------------------*27*---|
A|------------------7--------------------------------------------------------|
E|-3-------------------------------------------7------------------12---------|

e|------------------------*3*------------------------------------------------|
B|-----------------*12*---*3*------------------------------------------------|
G|-*23*-------------------*4*------------------------------------------------|
D|------*27*-*25*---------*5*------------------------------------------------|
A|---------------------------------------------------------------------------|
E|------------------3--------------------------------------------------------|

************************************

| h   Hammer-on
| p   Pull-off
| /   Slide up
| \   Slide down
|*number* harmonic

************************************

Other versions of When The Partys Over

When the partys overChords
When the partys over (Ver. 2)Chords
When the partys over (Ver. 3)Chords
When the partys over (Ver. 4)Chords
When the partys over (Ver. 5)Chords
When the partys over acoustic ukuleleChords
When the partys over ukuleleChords
When the partys overTabs
When the partys over acousticTabs

↓ Add and view comments below ↓

What do you think about this song and these tabs?

Add your comments, questions, rant or a thumbs up below.

Almost there ...

Sign in to get your own page with links to favourite songs and more. You are just one click away...

Login with Facebook Login with Google