Log in

One click and you are in

Login with Facebook Login with Google

Why sign up and log in

Guitar Tabs Explorer
Billie Eilish bass tabs for Therefore i am

Bass tabs

Tuning: Standard (E A D G)


Chorus
G||----------------------------------|---------------------------------|
D||o--------12--12--15--15--12-------|---------12--12--15--17--15--14--|
A||o-5---/---------------------------|--5---/--------------------------|
E||----------------------------------|---------------------------------|
G|----------------------------------|---------------------------------||
D|---------11--11--14--14--11-------|---------11--11--14--15--14--15-o||
A|----------------------------------|--------------------------------o|| x2
E|--5---/---------------------------|--5---/--------------------------||


Verse 1
G||----------------------------------|---------------------------------|
D||----------------------------------|---------12--12--15--17--15--14--|
A||----------------------------------|--5---/--------------------------|
E||----------------------------------|---------------------------------|

G|----------------------------------|----------------------------------|
D|---------11--11--14--14--11-------|---------11--11--14--15--14--15---|
A|----------------------------------|----------------------------------|
E|--5---/---------------------------|--5---/---------------------------|

G||----------------------------------|---------------------------------|
D||o--------12--12--15--15--12-------|---------12--12--15--17--15--14--|
A||o---------------------------------|--5---/--------------------------|
E||----------------------------------|---------------------------------|

G|----------------------------------|---------------------------------||
D|---------11--11--14--14--11-------|---------11--11--14--15--14--15--||
A|----------------------------------|---------------------------------||
E|--5---/---------------------------|--5---/--------------------------||

Pre Chorus (Break)


Chorus x 2
G||----------------------------------|---------------------------------|
D||o--------12--12--15--15--12-------|---------12--12--15--17--15--14--|
A||o-5---/---------------------------|--5---/--------------------------|
E||----------------------------------|---------------------------------|

G|----------------------------------|---------------------------------||
D|---------11--11--14--14--11-------|---------11--11--14--15--14--15-o||
A|----------------------------------|--------------------------------o|| x2
E|--5---/---------------------------|--5---/--------------------------||


Verse 2 (palm mute)
G|--------7-----7-----7---7-----7---|--------7-----7-----7---7-----7---|
D|o---------------------------------|----------------------------------|
A|o-5-------5-------5-------5-------|--5-------5-------5-------5-------|
E|----------------------------------|----------------------------------|

G|-------14--------14------14---14------14---|---------14------14------------------------|
D|-------------------------------------------|------------------------------------------o|
A|--12--------12--------12---------12--------|--12--------12--------12------------------o| x2
E|-------------------------------------------|-------------------------------------------|


Pre Chorus (Break)


Chorus
G||----------------------------------|---------------------------------|
D||o--------12--12--15--15--12-------|---------12--12--15--17--15--14--|
A||o-5---/---------------------------|--5---/--------------------------|
E||----------------------------------|---------------------------------|

G|----------------------------------|---------------------------------||
D|---------11--11--14--14--11-------|---------11--11--14--15--14--15-o||
A|----------------------------------|--------------------------------o|| x2
E|--5---/---------------------------|--5---/--------------------------||


Bridge (palm mute)
G|--------7-----7-----7---7-----7---|--------7-----7-----7---7-----7---|
D|o---------------------------------|----------------------------------|
A|o-5-------5-------5-------5-------|--5-------5-------5-------5-------|
E|----------------------------------|----------------------------------|

G|-------14--------14------14---14------14---|---------14------14------------------------||
D|-------------------------------------------|------------------------------------------o||
A|--12--------12--------12---------12--------|--12--------12--------12------------------o|| x2
E|-------------------------------------------|-------------------------------------------||


Pre Chorus (Break)


Chorus
G||----------------------------------|---------------------------------|
D||---------12--12--15--15--12-------|---------12--12--15--17--15--14--|
A||--5---/---------------------------|--5---/--------------------------|
E||----------------------------------|---------------------------------|

G|----------------------------------|----------------------------------|
D|---------11--11--14--14--11-------|---------11--11--14--15--14--15---|
A|----------------------------------|----------------------------------|
E|--5---/---------------------------|--5---/---------------------------|

G|-----------------------------------|---------------------------------|
D|----------12--12--15--15--12-------|---------12--12--15--17--15--14--|
A|---5---/---------------------------|--5---/--------------------------|
E|-----------------------------------|---------------------------------|

G|----------------------------------|---------------------------------||
D|---------11--11--14--14--11-------|---------------------------------||
A|----------------------------------|---------------------------------||
E|--5---/---------------------------|---------------------------------||


***********************************
| /  Slide up
***********************************

Other versions of Therefore I Am

Therefore I am (Ver. 2)Bass tabs

Almost there ...

Sign in to get your own page with links to favourite songs and more. You are just one click away...

Login with Facebook Login with Google