Log in

One click and you are in

Login with Facebook Login with Google

Why sign up and log in

Guitar Tabs Explorer
Billie Eilish bass tabs for Therefore i am (Ver. 2)

Bass tabs

Tuning: Standard (E A D G)


Chorus
G||-----------------10--10--------|-----------------10--12--10--9--|
D||o--------12--12----------12----|---------12--12-----------------|
A||o------------------------------|--------------------------------|
E||--10---------------------------|--10----------------------------|
G|---------6--6--9--9--6----|---------6--6--9--10--9--10--||
D|--------------------------|----------------------------o||
A|--------------------------|----------------------------o|| x2
E|--5-----------------------|--5--------------------------||


Verse 1
G||-------------------------------|-----------------10--12--10--9--|
D||-------------------------------|---------12--12-----------------|
A||-------------------------------|--------------------------------|
E||-------------------------------|--10----------------------------|

G|---------6--6--9--9--6----|---------6--6--9--10--9--10--|
D|--------------------------|-----------------------------|
A|--------------------------|-----------------------------|
E|--5-----------------------|--5--------------------------|

G|------------------10--10--------|-----------------10--12--10--9--|
D|----------12--12----------12----|---------12--12-----------------|
A|--------------------------------|--------------------------------|
E|--------------------------------|--10----------------------------|

G|---------6--6--9--9--6----|---------6--6--9--10--9--10--||
D|--------------------------|-----------------------------||
A|--------------------------|-----------------------------||
E|--5-----------------------|--5--------------------------||

Pre Chorus (2 bar Break)


Chorus
G|------------------10--10--------|-----------------10--12--10--9--|
D|----------12--12----------12----|---------12--12-----------------|
A|--------------------------------|--------------------------------|
E|---10---------------------------|--10----------------------------|

G|---------6--6--9--9--6----|---------6--6--9--10--9--10---|
D|--------------------------|------------------------------|
A|--------------------------|------------------------------|
E|--5-----------------------|--5---------------------------|

G|------------------10--10--------|-----------------10--12--10--9--|
D|----------12--12----------12----|---------12--12-----------------|
A|--------------------------------|--------------------------------|
E|--------------------------------|--10----------------------------|

G|---------6--6--9--9--6----|---------6--6--9--10--9--10---|
D|--------------------------|------------------------------|
A|--------------------------|------------------------------|
E|--5-----------------------|--5---------------------------|


Verse 2 (palm mute)
G|--------7-----7-----7---7-----7---|--------7-----7-----7---7-----7---|
D|o---------------------------------|----------------------------------|
A|o-5-------5-------5-------5-------|--5-------5-------5-------5-------|
E|----------------------------------|----------------------------------|

G|----------------------------------|----------------------------------|
D|--------7-----7-----7---7-----7---|--------7-----7------------------o| x2
A|----------------------------------|---------------------------------o|
E|--5-------5-------5-------5-------|--5-------5-------5---------------|


Pre Chorus (2 bar Break)


Chorus
G|------------------10--10--------|-----------------10--12--10--9--|
D|----------12--12----------12----|---------12--12-----------------|
A|--------------------------------|--------------------------------|
E|---10---------------------------|--10----------------------------|

G|---------6--6--9--9--6----|---------6--6--9--10--9--10---|
D|--------------------------|------------------------------|
A|--------------------------|------------------------------|
E|--5-----------------------|--5---------------------------|

G|------------------10--10--------|-----------------10--12--10--9--|
D|----------12--12----------12----|---------12--12-----------------|
A|--------------------------------|--------------------------------|
E|--------------------------------|--10----------------------------|

G|---------6--6--9--9--6----|---------6--6--9--10--9--10---|
D|--------------------------|------------------------------|
A|--------------------------|------------------------------|
E|--5-----------------------|--5---------------------------|


Bridge (palm mute)
G|--------7-----7-----7---7-----7---|--------7-----7-----7---7-----7---|
D|o---------------------------------|----------------------------------|
A|o-5-------5-------5-------5-------|--5-------5-------5-------5-------|
E|----------------------------------|----------------------------------|

G|----------------------------------|----------------------------------|
D|--------7-----7-----7---7-----7---|--------7-----7------------------o| x2
A|----------------------------------|---------------------------------o|
E|--5-------5-------5-------5-------|--5-------5-------5---------------|


Pre Chorus (4 bar Break)


Chorus
G||-----------------10--10--------|-----------------10--12--10--9--|
D||---------12--12----------12----|---------12--12-----------------|
A||-------------------------------|--------------------------------|
E||--10---------------------------|--10----------------------------|

G|---------6--6--9--9--6----|---------6--6--9--10--9--10---|
D|--------------------------|------------------------------|
A|--------------------------|------------------------------|
E|--5-----------------------|--5---------------------------|

G|------------------10--10--------|-----------------10--12--10--9--|
D|----------12--12----------12----|---------12--12-----------------|
A|--------------------------------|--------------------------------|
E|--------------------------------|--10----------------------------|

G|---------6--6--9--9--6----|----------------------------||
D|--------------------------|----------------------------||
A|--------------------------|----------------------------||
E|--5-----------------------|----------------------------||

Other versions of Therefore I Am

Therefore I amBass tabs

Almost there ...

Sign in to get your own page with links to favourite songs and more. You are just one click away...

Login with Facebook Login with Google