Log in

One click and you are in

Login with Facebook Login with Google

Why sign up and log in

Guitar Tabs Explorer
Billie Eilish guitar tabs for Party favor

Guitar tabs

e|-0---3-0-|---------|--------|-------0-------|-----------|-------0---------|
B|---1-----|--3-1-3--|-----1--|---1-3----3-1--|---3----1--|---1-3---3-1-----|
G|---------|---------|---2----|---------------|------2----|-----------------|
D|---------|---------|--------|---------------|-----------|-----------------|
A|---------|---------|--------|---------------|-----------|-----------------|
E|---------|---------|--------|---------------|-----------|-----------------|

e|---0-----|-0---3-0-|-----0-----|-------|-----0-----|-------|-----0-----|---0------|
B|---------|----1----|-1-3---3-1-|-3---1-|-1-3---3-1-|-3---1-|-1-3---3-1-|----------|
G|---------|---------|-----------|---2---|-----------|---2---|-----------|----------|
D|---------|---------|-----------|-------|-----------|-------|-----------|----------|
A|---------|---------|-----------|-------|-----------|-------|-----------|----------|
E|---------|---------|-----------|-------|-----------|-------|-----------|----------|

Pre-Chorus:

e|--5-0-----0-5-3---0---5-3-1-------0-------3-5-0--0-5-3-0--0-5-3-1-3--------|
B|----------------------------3--3------------------------------------3-1-1--|
G|---------------------------------------------------------------------------|
D|---------------------------------------------------------------------------|
A|---------------------------------------------------------------------------|
E|---------------------------------------------------------------------------|


Chorus:

e|---0-1-0------------0---3-0---0-3-0--0-------------------------------------|
B|-3-------3-1--0-1-3---------3----------1-0---------------------------------|
G|---------------------------------------------------------------------------|
D|---------------------------------------------------------------------------|
A|---------------------------------------------------------------------------|
E|---------------------------------------------------------------------------|

e|---0-1-0-------------------0--3-0----0-3-0---0------0----------------------|
B|-3-------3-1--3-1---0-1-3----------3-----------1-0----1-1-0-1-3-1----------|
G|---------------------------------------------------------------------------|
D|---------------------------------------------------------------------------|
A|---------------------------------------------------------------------------|
E|---------------------------------------------------------------------------|


Verse:

e|-0---3-0-|---------|--------|-------0-------|-----------|-------0---------|
B|---1-----|--3-1-3--|-----1--|---1-3----3-1--|---3----1--|---1-3---3-1-----|
G|---------|---------|---2----|---------------|------2----|-----------------|
D|---------|---------|--------|---------------|-----------|-----------------|
A|---------|---------|--------|---------------|-----------|-----------------|
E|---------|---------|--------|---------------|-----------|-----------------|

e|---0-----|-0---3-0-|-----0-----|-------|-----0-----|-------|-----0-----|---0------|
B|---------|----1----|-1-3---3-1-|-3---1-|-1-3---3-1-|-3---1-|-1-3---3-1-|----------|
G|---------|---------|-----------|---2---|-----------|---2---|-----------|----------|
D|---------|---------|-----------|-------|-----------|-------|-----------|----------|
A|---------|---------|-----------|-------|-----------|-------|-----------|----------|
E|---------|---------|-----------|-------|-----------|-------|-----------|----------|


Pre-Chorus:

e|--5-0-----0-5-3---0---5-3-1-------0-------3-5-0--0-5-3-0--0-5-3-1-3--------|
B|----------------------------3--3------------------------------------3-1-1--|
G|---------------------------------------------------------------------------|
D|---------------------------------------------------------------------------|
A|---------------------------------------------------------------------------|
E|---------------------------------------------------------------------------|


Chorus:

e|---0-1-0------------0---3-0---0-3-0--0-------------------------------------|
B|-3-------3-1--0-1-3---------3----------1-0---------------------------------|
G|---------------------------------------------------------------------------|
D|---------------------------------------------------------------------------|
A|---------------------------------------------------------------------------|
E|---------------------------------------------------------------------------|

e|---0-1-0-------------------0--3-0----0-3-0---0------0----------------------|
B|-3-------3-1--3-1---0-1-3----------3-----------1-0----1-1-0-1-3-1----------|
G|---------------------------------------------------------------------------|
D|---------------------------------------------------------------------------|
A|---------------------------------------------------------------------------|
E|---------------------------------------------------------------------------|

Other versions of Party Favor

Party favorChords
Party favor ukuleleChords
Party favor-(Ver. 2)Chords

↓ Add and view comments below ↓

What do you think about this song and these tabs?

Add your comments, questions, rant or a thumbs up below.

Almost there ...

Sign in to get your own page with links to favourite songs and more. You are just one click away...

Login with Facebook Login with Google