Search tabs and chords

Search for song, artist or band

Log in

One click and you are in

Login with Facebook Login with Google

Why sign up and log in

Guitar Tabs Explorer
Billie Eilish guitar tabs for Ocean eyes

Guitar tabs

Tuning: Standard (E chord diagramEE A chord diagramAA D chord diagramDD G chord diagramGG B chord diagramBB E chord diagramEE)

Difficulty: Novice

Intro:
e|------------0------------0-------------------------------------------------|
B|-5-3-0-----------3-0----------3-0----0-3-----------------------------------|
G|-----------------------------------------0---------------------------------|
D|---------------------------------------------------------------------------|
A|---------------------------------------------------------------------------|
E|---------------------------------------------------------------------------|

Verse:
e|-0--------------0------------0---------------------------------------------|
B|---3-0------------3-0---------3-0-------0-3--------------------------------|
G|-------2-0------------------------2-0-2------------------------------------|
D|-------------------------------------------2-------------------------------|
A|---------------------------------------------------------------------------|
E|---------------------------------------------------------------------------|

e|-0--------------0------------0-----------------------0---------------------|
B|---3-0------------3-0----------3-0-------0-3-----0-3-----------------------|
G|-------2-0-------------------------2-0-2-----------------------------------|
D|--------------------------------------------2---2--------------------------|
A|---------------------------------------------------------------------------|
E|---------------------------------------------------------------------------|

Chorus:
e|-7-3------5-3-5-3---0-0-0-7-7-7-5-5-5-------5-3-7-10-0---------------------|
B|--------------------------------------5-5-5--------------------------------|
G|---------------------------------------------------------------------------|
D|---------------------------------------------------------------------------|
A|---------------------------------------------------------------------------|
E|---------------------------------------------------------------------------|

e|-7-3------5-3-5-3---0-0-0-7-7-7-5-5-5-------5-3-7-10-0-----7-10-12---------|
B|--------------------------------------5-5-5--------------8-----------------|
G|---------------------------------------------------------------------------|
D|---------------------------------------------------------------------------|
A|---------------------------------------------------------------------------|
E|---------------------------------------------------------------------------|

Other versions of Ocean Eyes

Ocean eyesChords
Ocean eyes ukuleleChords

Almost there ...

Sign in to get your own page with links to favourite songs and more. You are just one click away...

Login with Facebook Login with Google