Log in

One click and you are in

Login with Facebook Login with Google

Why sign up and log in

Guitar Tabs Explorer
Billie Eilish guitar tabs for Ocean eyes (Ver. 3)

Guitar tabs

Intro:

e|---0-----------0-----------0-----------------------------------------------|
B|--1---3--0----1---3--0----1---3--0---0--3----------------------------------|
G|-0----2--0---0----2--0---0----2--0---0--0--0-------------------------------|
D|------0--2--------0--2--------0--2---------2-------------------------------|
A|-------------------------------------------3-------------------------------|
E|-------------------------------------0--3----------------------------------|

Verse 1:

e|---0----------------0----------0-------------------------------------------|
B|--1---3--0---------1---3--0---1---3--0-----------0--3----------------------|
G|-0----2--0--2--0--0----2--0--0----2--0--2--0--2--0--0--0-------------------|
D|------0--2-------------0--2-------0--2-----------------2-------------------|
A|-------------------------------------------------------3-------------------|
E|-------------------------------------------------0--3----------------------|

e|---0----------------0------------0--------------------------------------0--|
B|--1---3--0---------1---3--1p0---1---3--0-----------0--3--------0--3----3---|
G|-0----2--0--2--0--0----2--0----0----2--0--2--0--2--0--0--0--0--0--0---0----|
D|------0--2-------------0--2---------0--2-----------------2-----------------|
A|---------------------------------------------------------3-----------3-----|
E|---------------------------------------------------0--3--------0--3--------|


Chorus:

e|---------------------------------------------------------------------------|
B|-0-----------------------------0-------------------------------------------|
G|----0--------0--------0-----------2p0--2p0-----------0--------0------------|
D|----------2--------4--------5---------------0-----4-----2--2-----2---------|
A|-------3--------5--------7-------------3-------5---------------------------|
E|---------------------------------------------------------------------------|

e|---------------------------------------------------------------------------|
B|-0--0--0----------------------------0--3-----------------------------------|
G|----------2--2--2p0----------0h2p0--0--0--0--------------------------------|
D|----------0-----2----2--2-2---------------2--------------------------------|
A|-3----------------------------------------3--------------------------------|
E|------------------------------------0--3-----------------------------------|

e|---------------------------------------------------------------------------|
B|-0-----------------------------0-------------------------------------------|
G|----0--------0--------0-----------2p0--2p0-----------0--------0------------|
D|----------2--------4--------5---------------0-----4-----2--2-----2---------|
A|-------3--------5--------7-------------3-------5---------------------------|
E|---------------------------------------------------------------------------|

e|------------------------------------------------------0--------------------|
B|-0--0--0----------------------------0--3-----0--3----3---------------------|
G|----------2--2--2p0----------0h2p0--0--0--0--0--0---0----------------------|
D|----------0-----2----2--2-2---------------2--------------------------------|
A|-3----------------------------------------3--------3-----------------------|
E|------------------------------------0--3-----0--3--------------------------|


Verse 2:

e|---0----------------0----------0-------------------------------------------|
B|--1---3--0---------1---3--0---1---3--0-----------0--3----------------------|
G|-0----2--0--2--0--0----2--0--0----2--0--2--0--2--0--0--0-------------------|
D|------0--2-------------0--2-------0--2-----------------2-------------------|
A|-------------------------------------------------------3-------------------|
E|-------------------------------------------------0--3----------------------|

e|---0----------------0------------0--------------------------------------0--|
B|--1---3--0---------1---3--1p0---1---3--0-----------0--3--------0--3----3---|
G|-0----2--0--2--0--0----2--0----0----2--0--2--0--2--0--0--0--0--0--0---0----|
D|------0--2-------------0--2---------0--2-----------------2-----------------|
A|---------------------------------------------------------3-----------3-----|
E|---------------------------------------------------0--3--------0--3--------|


Chorus:

e|---------------------------------------------------------------------------|
B|-0-----------------------------0-------------------------------------------|
G|----0--------0--------0-----------2p0--2p0-----------0--------0------------|
D|----------2--------4--------5---------------0-----4-----2--2-----2---------|
A|-------3--------5--------7-------------3-------5---------------------------|
E|---------------------------------------------------------------------------|

e|---------------------------------------------------------------------------|
B|-0--0--0----------------------------0--3-----------------------------------|
G|----------2--2--2p0----------0h2p0--0--0--0--------------------------------|
D|----------0-----2----2--2-2---------------2--------------------------------|
A|-3----------------------------------------3--------------------------------|
E|------------------------------------0--3-----------------------------------|

e|---------------------------------------------------------------------------|
B|-0-----------------------------0-------------------------------------------|
G|----0--------0--------0-----------2p0--2p0-----------0--------0------------|
D|----------2--------4--------5---------------0-----4-----2--2-----2---------|
A|-------3--------5--------7-------------3-------5---------------------------|
E|---------------------------------------------------------------------------|

e|------------------------------------------------------0--------------------|
B|-0--0--0----------------------------0--3-----0--3----3---------------------|
G|----------2--2--2p0----------0h2p0--0--0--0--0--0---0----------------------|
D|----------0-----2----2--2-2---------------2--------------------------------|
A|-3----------------------------------------3--------3-----------------------|
E|------------------------------------0--3-----0--3--------------------------|


Verse 3:

e|---0----------------0----------0-------------------------------------------|
B|--1---3--0---------1---3--0---1---3--0-----------0--3----------------------|
G|-0----2--0--2--0--0----2--0--0----2--0--2--0--2--0--0--0-------------------|
D|------0--2-------------0--2-------0--2-----------------2-------------------|
A|-------------------------------------------------------3-------------------|
E|-------------------------------------------------0--3----------------------|

e|---0----------------0------------0--------------------------------------0--|
B|--1---3--0---------1---3--1p0---1---3--0-----------0--3--------0--3----3---|
G|-0----2--0--2--0--0----2--0----0----2--0--2--0--2--0--0--0--0--0--0---0----|
D|------0--2-------------0--2---------0--2-----------------2-----------------|
A|---------------------------------------------------------3-----------3-----|
E|---------------------------------------------------0--3--------0--3--------|



Chorus:

e|---------------------------------------------------------------------------|
B|-0-----------------------------0-------------------------------------------|
G|----0--------0--------0-----------2p0--2p0-----------0--------0------------|
D|----------2--------4--------5---------------0-----4-----2--2-----2---------|
A|-------3--------5--------7-------------3-------5---------------------------|
E|---------------------------------------------------------------------------|

e|---------------------------------------------------------------------------|
B|-0--0--0----------------------------0--3-----------------------------------|
G|----------2--2--2p0----------0h2p0--0--0--0--------------------------------|
D|----------0-----2----2--2-2---------------2--------------------------------|
A|-3----------------------------------------3--------------------------------|
E|------------------------------------0--3-----------------------------------|

e|---------------------------------------------------------------------------|
B|-0-----------------------------0-------------------------------------------|
G|----0--------0--------0-----------2p0--2p0-----------0--------0------------|
D|----------2--------4--------5---------------0-----4-----2--2-----2---------|
A|-------3--------5--------7-------------3-------5---------------------------|
E|---------------------------------------------------------------------------|

e|------------------------------------------------------0--------------------|
B|-0--0--0----------------------------0--3-----0--3----3---------------------|
G|----------2--2--2p0----------0h2p0--0--0--0--0--0---0----------------------|
D|----------0-----2----2--2-2---------------2--------------------------------|
A|-3----------------------------------------3--------3-----------------------|
E|------------------------------------0--3-----0--3--------------------------|

Other versions of Ocean Eyes

Ocean eyesChords
Ocean eyes (Ver. 2)Chords
Ocean eyes (Ver. 3)Chords
Ocean eyes ukuleleChords
Ocean eyesTabs
Ocean eyes (Ver. 2) - introTabs

↓ Add and view comments below ↓

What do you think about this song and these tabs?

Add your comments, questions, rant or a thumbs up below.

Almost there ...

Sign in to get your own page with links to favourite songs and more. You are just one click away...

Login with Facebook Login with Google