Log in

One click and you are in

Login with Facebook Login with Google

Why sign up and log in

Guitar Tabs Explorer
Billie Eilish guitar tabs for No time to die

Guitar tabs

Tuning: Standard (E A D G B E)


Intro:

N.H. ()

e|---(0)--(2)---(3)---(7)-(0)--(2)----(3)---(7)-(0)--(2)--(3)--(7)---(2)-----(2)-|
B|-------------------------------------------------------------------------------|
G|-------------------------------------------------------------------------(2)---|
D|-------------------------------------------------------------------------------|
A|-------------------------3--3----3------3------0-0----0----0----0---2--(2)-----|
E|----0--0----0-----0------------------------------------------------------------|

e|---0---2---3--7--0---2---3---7---0---2---3---7-----2-----------------------|
B|---0---0---0--0--0---0---0---0---1---1---1---------0-----------------------|
G|---0-----------------------------2---2---2---------2-----------------------|
D|---------------------------------------------------------------------------|
A|-----------------3-3---3---3---3---0---0---0---0---2-----------------------|
E|---0-0---0---0-------------------------------------------------------------|


Verse 1:

e|--------------------------------0---------2----2h3--0----------------------|
B|----3/5--3---1--0-------2-----1-----3/5---0---------1------1---0-----------|
G|----0----0------------2-----2-------0-----0--0------2----2--------2-0------|
D|----0----2----------2---------------0------------------2--------------4--2-|
A|---------3--------0-------0---------------3---------0----------------------|
E|--0-------------------------------0--------------------------------------0-|

e|--------0----------------------------------------------------------------2-|
B|--------0--3-------1p0---------2-----0-0h1--0--0h1-0--0h1-0-0h1p0----------|
G|--------0--0----0--0---------2-----2--------2-------------0-------0-----2--|
D|-----------2--2------------2----------------2-------------2----------4-----|
A|-----------3-------------0------------------0------------------------2-2---|
E|--0-------------------------------------------------------0----------------|

e|--------------------------------0---------2----2h3--0----------------------|
B|----3/5--3---1--0-------2-----1-----3/5---0---------1------1--0------------|
G|----0----0------------2-----2-------0-----0--0------2----2-------2-0-------|
D|----0----2----------2---------------0------------------2--------------4--2-|
A|---------3--------0-------0---------------3---------0----------------------|
E|--0-------------------------------0--------------------------------------0-|

e|--------0----------------------------------------------------------------2-|
B|--------0--3-------1--0--------2-----0-0h1--0--0h1-0--0h1-0-0h1p0----------|
G|--------0--0----0--0--0------2-----2--------2-------------0-------0-----2--|
D|-----------2--2------------2----------------2-------------2----------4-----|
A|-----------3-------------0------------------0------------------------2-2---|
E|--0-------------------------------------------------------0----------------|

e|---------------------------------------------------------------------------|
B|---------------------------------------------------0-0h1------0--0-0h1-0---|
G|-----0-2-0-----0---------0---2--0------0-----0-0h2-2-------------2---------|
D|---4---2-----4------2--4-----2-------4-----2-------2--------2--------------|
A|-------3---3-----3---------------------------------0-----0-----------------|
E|-----------------------------0-----0-----0---------------------------------|

e|--------------2------------------------------------------------------------|
B|--1p0----------------------------------------------------------------------|
G|-----------2---------------------------------------------------------------|
D|---------1-----------------------------------------------------------------|
A|-------2-------------------------------------------------------------------|
E|---------------------------------------------------------------------------|

Chorus:

e|--------3--2--------0-------------------------3--2----0---3--/5--5p3p0-----|
B|--0--0-----0----0---0-----1p0-----1-----0--0-----0----0---0----------------|
G|-----------0----0---0-----0-------2-----2--2-----0----0---0----------------|
D|--------------------------------2------------------------------------------|
A|--------------------3---------0-------0-------------------3------0-------0-|
E|-----x-----0--x--------x----------x--------x-----0--x-------x----------x---|

e|---7-7/8--7---3--2--0--7--7/8--7-----8h10-10-8-7--3--5--7--3--2-----0------|
B|----------0---0-----0--0-------10-----------------------0--0--0--0--1------|
G|----------0---0-----0--0-------9------------------------0-----------2------|
D|----------------------------------10--------------------------2------------|
A|--------------------3----------0------------------------------3-----0------|
E|----------0---x--------x------------------x-------x-----0------------------|

e|-3--2--3--2--3--0---2---3--7--0---2---3---7---0---2---3---7-----2----------|
B|----------------0---0---0--0--0---0---0---0---1---1---1---------0----------|
G|----------------0-----------------------------2---2---2---------2----------|
D|---------------------------------------------------------------------------|
A|------------------------------3-3---3---3---3---0---0---0---0---2----------|
E|----------------0-0---0---0------------------------------------------------|



Verse 2:

e|--------------------------------0---------2-0-2-2h3-0---------------0------|
B|----3/5--3---1--0-------2-----1-----3/5---0---------1------1------1--------|
G|----0----0------------2-----2-------0-----0---------2----2------2----------|
D|----0----2----------2---------------0------------------2-------------------|
A|---------3--------0-------0---------------3---------0----------------------|
E|--0-------------------------------0----------------------------------------|

e|-------------------------------------------------------------------------0-|
B|-----3/5---3--1-0---1p0--------2-----0-0h1--0--0h1-0-----------------------|
G|-----0-----0-----------------2-----2--------2-----------2---2----2----2----|
D|-----0-----2---------------2----------------2--------2----2----2---2-------|
A|-----------3------3------0------------------0------0-----------------------|
E|--0------------------------------------------------------------------------|

e|---2------------------------------------------------------------------------|
B|---0-----0---0-------------------------------------------------------------|
G|---2--2----2---------------------------------------------------------------|
D|---------------------------------------------------------------------------|
A|---2-----------------------------------------------------------------------|
E|---------------------------------------------------------------------------|


Chorus:

e|--------3--2--------0-------------------------3--2----0---3--/5--5p3p0-----|
B|--0--0-----0----0---0-----1p0-----1-----0--0-----0----0---0----------------|
G|-----------0----0---0-----0-------2-----2--2-----0----0---0----------------|
D|--------------------------------2------------------------------------------|
A|--------------------3---------0-------0-------------------3------0-------0-|
E|-----x-----0--x--------x----------x--------x-----0--x-------x----------x---|

e|---7-7/8--7---3--2--0--7--7/8--7-----8h10-10-8-7--3--5--7--3--2-----0------|
B|----------0---0-----0--0-------10-----------------------0--0--0--0--1------|
G|----------0---0-----0--0-------9------------------------0-----------2------|
D|----------------------------------10--------------------------2------------|
A|--------------------3----------0------------------------------3-----0------|
E|----------0---x--------x------------------x-------x-----0------------------|

e|-3-2-3--2-3--0---2---3--7--0---2---3-3-2-3--5p3p0--2---3---7--2/3-2--0-2-3-|
B|-------------0---0---0--0--0---0---0---------------1---1-------------0-0-0-|
G|-------------0-------------------------------------2---2-------------2-2-2-|
D|---------------------------------------------------------------------------|
A|---------------------------3-3---3----------0--------0---0---0-------2-----|
E|-------------0-0---0---0---------------------------------------------------|

e|---3--2---3/7--7--0----2---3---7--0----2---3---7-3-5p3p0-----2---3---7---2-|
B|------------------0----0---0---0--0----0---0---0-------------1---1---0---0-|
G|------------------0------------------------------------------2---2-------2-|
D|---------------------------------------------------------------------------|
A|----------------------------------3--3---3---3-----0-----------0---0---0-2-|
E|------------------0--0---0---0---------------------------------------------|


Outro:

e|---7-7/8--7---3--2--0--7--7/8--7----------------2h3-----7--3--2-----0------|
B|----------0---0-----0--0-------10--10--8--7/5-----------0--0--0--0--1------|
G|----------0---0-----0--0-------9------------------------0-----------2------|
D|--------------------------------------------------------------2------------|
A|--------------------3----------0------------------------------3-----0------|
E|----------0---------------------------------------------0------------------|

e|---3--2---3---2----3--0----2~----------------------------------------------|
B|---------------------------0~----------------------------------------------|
G|---------------------------0~----------------------------------------------|
D|----------------------------~----------------------------------------------|
A|---------------------------------------------------------------------------|
E|----------------------0----0~----------------------------------------------|


************************************

| x   Dead note
| (n) Ghost note
| h   Hammer-on
| p   Pull-off
| \   Slide down
| ~   Vibrato


************************************

Other versions of No Time To Die

No time to dieChords
No time to die (Ver. 2)Chords
No time to die (Ver. 3)Chords
No time to die (Ver. 4)Chords
No time to die ukuleleChords

↓ Add and view comments below ↓

What do you think about this song and these tabs?

Add your comments, questions, rant or a thumbs up below.

Almost there ...

Sign in to get your own page with links to favourite songs and more. You are just one click away...

Login with Facebook Login with Google