Log in

One click and you are in

Login with Facebook Login with Google

Why sign up and log in

Guitar Tabs Explorer
Billie Eilish bass tabs for My strange addiction

Bass tabs

[Verse 1|

G|---------------------------------------|
D|--6------------------------------------|
A|-------6-7---4--6-4--------------------|
E|--4------------------7-4---------------|
    ^ you can play either note


G|---------------------------------------|
D|--6------------------------------------|
A|-------6-7---4--6-4--------------------|
E|--4------------------7-4---------------|
    ^ you can play either note


[Verse 2|

G|---------------------------------------|
D|--6------------------------------------|
A|-------6-7---4--6-4--------------------|
E|--4------------------7-4---------------|



G|---------------------------------------|
D|--6------------------------------------|
A|-------6-7---4--6-4--------------------|
E|--4------------------7-4---------------|



G|------------------------------------|
D|------------------------------------|
A|------------------------------------|
E|------4\---4---4--------------------|  repeat



G|---------------------------------------|
D|--6------------------------------------|
A|-------6-7---4--6-4--------------------|
E|--4------------------7-4---------------|



G|---------------------------------------|
D|--6------------------------------------|
A|-------6-7---4--6-4--------------------|
E|--4------------------7-4---------------|

Other versions of My Strange Addiction

My strange addiction (Ver. 2)Bass tabs

↓ Add and view comments below ↓

What do you think about this song and these tabs?

Add your comments, questions, rant or a thumbs up below.

Almost there ...

Sign in to get your own page with links to favourite songs and more. You are just one click away...

Login with Facebook Login with Google