Search tabs and chords

Search for song, artist or band

Log in

One click and you are in

Login with Facebook Login with Google

Why sign up and log in

Guitar Tabs Explorer
Billie Eilish guitar tabs for Lovely

Guitar tabs

  • Tuning: Standard tuning
Intro:
e|---------------------------------------------------------------------------|
B|-0-----2--2----0-2-----0------2--2---0--0----------------------------------|
G|-------------------------------------------2-------------------------------|
D|---------------------------------------------------------------------------|
A|---------------------------------------------------------------------------|
E|---------------------------------------------------------------------------|
  Thought I find a way, thought I find a way yeah
e|---------------------------------------------------------------------------|
B|--------0-2---2--0-2--------0---2--2-0---0---------------------------------|
G|-2--2-----------------2--2--------------------2----------------------------|
D|---------------------------------------------------------------------------|
A|---------------------------------------------------------------------------|
E|---------------------------------------------------------------------------|
  But you never go away so I guess I gotta stay now
Verse:
e|---------------------------------0-----------------------------------------|
B|-0-2--0----------------------0-2-----2---0---------------------------------|
G|----------2--------1-----2-------------------------------------------------|
D|---------------4-----------------------------------------------------------|
A|---------------------------------------------------------------------------|
E|---------------------------------------------------------------------------|
  Oh I hope some day I’ll make it out of here
e|---------------------------------0-----------------------------------------|
B|-0-2-0----------------------0-2-----2---0----------------------------------|
G|--------2---------1---2----------------------------------------------------|
D|-----------4---------------------------------------------------------------|
A|---------------------------------------------------------------------------|
E|---------------------------------------------------------------------------|
  Even if it takes all night or a hundred years
e|----------------------------------0----------------------------------------|
B|-0---2--0--------------------0-2-------2----0------------------------------|
G|-------------2--------1---2------------------------------------------------|
D|-----------------4---------------------------------------------------------|
E|---------------------------------------------------------------------------|
A|---------------------------------------------------------------------------|
  Need a place to hide, but I can’t find one near
e|---------------------------------0-----------------------------------------|
B|-0-2--0-----------------0---2----------2--0--------------------------------|
G|-----------2-----1--2------------------------------------------------------|
D|-------------4-------------------------------------------------------------|
A|---------------------------------------------------------------------------|
E|---------------------------------------------------------------------------|
  Wanna feel alive outside I can’t fight my fear

Chorus:

e|-7-5--3--2--0----5---3-2----7-----5----3--2----0---2----0--3---------------|
B|---------------------------------------------------------------------------|
G|---------------------------------------------------------------------------|
D|---------------------------------------------------------------------------|
A|---------------------------------------------------------------------------|
E|---------------------------------------------------------------------------|
  Isn’t it lovely, all alone Heart made of glass my mind of stone
e|-7---5--3---2--0----5---3---2---2-3-2---2--0-----3-------------------------|
B|---------------------------------------------------------------------------|
G|---------------------------------------------------------------------------|
D|---------------------------------------------------------------------------|
A|---------------------------------------------------------------------------|
E|---------------------------------------------------------------------------|
  Tear me to peaces, skin and bone Hello, welcome home


Outro:

e|-0-2-0-------0---2-3-2-3-2--0--7-8-7-8-7-3-2-0-----------------------------|
B|-------2-0-2---------------------------------------------------------------|
G|---------------------------------------------------------------------------|
D|---------------------------------------------------------------------------|
A|---------------------------------------------------------------------------|
E|---------------------------------------------------------------------------|

e|-2-3-2--2-0---3-2-0---0----------------------------------------------------|
B|--------------------3------------------------------------------------------|
G|---------------------------------------------------------------------------|
D|---------------------------------------------------------------------------|
A|---------------------------------------------------------------------------|
E|---------------------------------------------------------------------------|
  Hello, wecome hooooooome

Other versions of Lovely

LovelyChords
Lovely (Ver. 2)Chords
Lovely ukuleleChords
Lovely (Ver. 2)Tabs

Almost there ...

Sign in to get your own page with links to favourite songs and more. You are just one click away...

Login with Facebook Login with Google