Search tabs and chords

Search for song, artist or band

Log in

One click and you are in

Login with Facebook Login with Google

Why sign up and log in

Guitar Tabs Explorer
Billie Eilish guitar tabs for Lovely (Ver. 2)

Guitar tabs

Key: Em chord diagramEmEm

Difficulty: Advanced

Tuning: CGCGBD

Intro:

D|-----5--------5-------5-------5-|-----5-------5--------5-------5-|-----5-------5-------5--------5-|
B|-5-------5--------5-------5-----|-5-------5-------5--------5-----|-5-------5-------5-------5------|
G|--------------------------------|--------------------------------|--------------------------------|
C| chord diagramC|C|--------------------------------|--------------------------------|-----------------4--------------|
G|--------------------------------|--------------------------------|-0------------------------------|
C| chord diagramC|C|--------------------------------|--------------------------------|--------------------------------|

D|-----5-------5-------5--------5-|-----5-------5-------5--------5-|-----5-------5-------5--------5-|
B|-5-------5-------5--------5-----|-5-------5-------5--------5-----|-5-------5-------5--------5-----|
G|--------------------------------|-0------------------------------|--------------------------------|
C| chord diagramC|C|-----------------6--------------|--------------------------------|-6------------------------------|
G|--------------------------------|--------------------------------|-4---------------7--------------|
C| chord diagramC|C|--------------------------------|-4------------------------------|--------------------------------|

D|-----5--------5-------5-------5-|-----5-------5--------5-------5-|-----5-------5-------5--------5-|
B|-5-------5--------5-------5-----|-5-------5-------5--------5-----|-5-------5-------5-------5------|
G|--------------------------------|-----------------4--------2-----|-4------------------------------|
C| chord diagramC|C|------------------4-------------|--------------------------------|-4------------------------------|
G|--------------------------------|--------------------------------|--------------------------------|
C| chord diagramC|C|-0------------------------------|--------------------------------|-4------------------------------|

D|-----5--------5-------5-------5-|
B|-5-------5--------5-------5-----|
G|--------------------------------|
C| chord diagramC|C|-6------------------------------|
G|-4----------------7-------------|
C| chord diagramC|C|--------------------------------|

Verse 1:

D|-------------------------|--------------------------------|---------------------------------------|
B|-------------------------|--------------------------------|---------------------------------------|
G|-2h4---4p2---2-----------|--------------------------------|-2h4---4p2---2-------0-----------------|
C| chord diagramC|C|-0---------------0--0--0-|-----0--0--0------0--0--0-------|-4---------------4-------4-------------|
G|-------------------------|--------------------------------|---------------------------------------|
C| chord diagramC|C|-0-----------------------|-0------------0-----------------|-4-------------------------------------|

D|------------------------------------|
B|-----------0------------------------|
G|------------------------------0---0-| x2
C| chord diagramC|C|-----2----------2---------2---------|
G|-4-------------------4--------------|
C| chord diagramC|C|------------------------------------|

Pre chorus:
   o                                o
D|--------------------------------|---------------------------------|-2----------------0------------|
B|--------------------------------|---------------------------0-----|-0-----------------------------|
G|--------------------------------|-0----------------2--------------|-0-------0---------------0-----|
C| chord diagramC|C|-4----------------5-------------|-0----------------------------0--|-----4------4--------4-------4-|
G|-----0---0---0--------0---0---0-|-----0---0---0-------------------|-------------------------------|
C| chord diagramC|C|-0----------------x-------------|-0----------------x---0----------|-4----------------x------------|
   o                                    o
D|------------------------------------|-------------------------|
B|-0----------0----0------------------|-0-----------------------|
G|--------0------------2--------0-----|--------0-----------0----| x4
C| chord diagramC|C|-----2----------------------------2-|-----2-----2----2------0-|
G|-4-------------------x----4---------|-4-----------------------|
C| chord diagramC|C|------------------------------------|-------------------------|

Chorus:

D|-9----------7--5--4-------2----|-----------------7--5--4----------|-9-----------7--5--4-----2----|
B|--------0----------------------|-------------0---------------0----|---------0--------------------|
G|-----0----------------0------0-|---------0---------------0------0-|-----0----------------0-----0-|
C| chord diagramC|C|-0-----------------------------|-----0----------------------------|-4----------------------------|
G|-------------------------------|----------------------------------|------------------------------|
C| chord diagramC|C|-------------------------------|----------------------------------|------------------------------|

D|-4-------2--------0-------------|-9-----------7--5--4-------------|---------4h5------4-----------|
B|-0-------0-----------------0----|---------0-----------------0-----|---------0--------0------0----|
G|-0---0-------0---------0------0-|-----0-----------------0-------0-|-----0--------0-------0-----0-|
C| chord diagramC|C|-2----------------2-------------|-0-------------------------------|-4----------------4-----------|
G|--------------------------------|---------------------------------|------------------------------|
C| chord diagramC|C|--------------------------------|---------------------------------|------------------------------|

D|-4-------2-----------------5----|--------------------------------|-------------------------------|
B|-0-------0-----------------0----|---------0----------------0-----|----------0---------------0----|
G|-0---0-------0---------0------0-|-----0-------0--------0-------0-|------0-------0-------0------0-|
C| chord diagramC|C|-2----------------2-------------|-0---------------0--------------|--0---------------0------------|
G|--------------------------------|--------------------------------|-------------------------------|
C| chord diagramC|C|--------------------------------|--------------------------------|-------------------------------|

Verse 2:

D|-------------------------|--------------------------------|---------------------------------------|
B|-------------------------|--------------------------------|---------------------------------------|
G|-2h4---4p2---2-----------|--------------------------------|-2h4---4p2---2-------0-----------------|
C| chord diagramC|C|-0---------------0--0--0-|-----0--0--0------0--0--0-------|-4---------------4-------4-------------|
G|-------------------------|--------------------------------|---------------------------------------|
C| chord diagramC|C|-0-----------------------|-0------------0-----------------|-4-------------------------------------|

D|-------------------------------------------------|
B|-----------0----------------------0--------------|
G|------------------------------0------2------0----| x2
C| chord diagramC|C|-----2----------2---------2-------------2------2-|
G|-4-------------------4---------------------------|
C| chord diagramC|C|-------------------------------------------------|

Bridge:
   o                               o                               o
D|-----------------5-------------|-5-----------5-----------5-----|----------------------------------|
B|---------5-------5-------------|-5-----------0-----------1-----|-0--------------------------------|
G|-0-------0-------0-------0-----|-0-------0---0-----------0-----|-------------2---2-------0--------|
C| chord diagramC|C|-0---0-------0-------0-------2-|-----0-------------------------|-4---4---4---4---4-----------4----|
G|-0-----------------------------|-------------------------------|----------------------------------|
C| chord diagramC|C|-0---------------x-------------|-0---------------x---0-------0-|-4---------------x---4------------|
   o                            o
D|------0---0---0---0---0-----|---------4---5---4--------------|---------------9---13--9--10--------|
B|------0---0---0---0---0---0-|-5---5---5---5---5--------------|--------5------0---0---0---0--------|
G|------0---0---0---0---0---0-|-0---0---0---0---0--------0-----|--------0------0---0---0---0--------|
C| chord diagramC|C|------5---5---5---5---5---0-|-0---0---0---0---0------------0-|-----0-----0------------------------|
G|-4----4---4-------4---4-----|-0------------------------------|------------------------------------|
C| chord diagramC|C|--------------x-------------|-0---------------x---0----------|-0-------------x--------------------|
   o
D|-3----------------5-------------------4---------|
B|-0----------------0-------------------0---------|
G|-0-------0--------0--------0----------0---------|
C| chord diagramC|C|-4---4-------4-----------------4------2---------|
G|-4----------------------------------------------|
C| chord diagramC|C|-4----------------x---4-------------------------|

Outro:

D|-9----------7--5--4-------2----|-----------------7--5--4----------|-9-----------7--5--4-----2----|
B|--------0----------------------|-------------0---------------0----|---------0--------------------|
G|-----0----------------0------0-|---------0---------------0------0-|-----0----------------0-----0-|
C| chord diagramC|C|-0-----------------------------|-----0----------------------------|-4----------------------------|
G|-------------------------------|----------------------------------|------------------------------|
C| chord diagramC|C|-------------------------------|----------------------------------|------------------------------|

D|-4-------2--------0-------------|-9-----------7--5--4-------------|---------4h5------4-----------|
B|-0-------0-----------------0----|---------0-----------------0-----|---------0--------0------0----|
G|-0---0-------0---------0------0-|-----0-----------------0-------0-|-----0--------0-------0-----0-|
C| chord diagramC|C|-2----------------2-------------|-0-------------------------------|-4----------------4-----------|
G|--------------------------------|---------------------------------|------------------------------|
C| chord diagramC|C|--------------------------------|---------------------------------|------------------------------|

D|-4-------2-----------------5----|--------------------------------|-------------------------------|
B|-0-------0-----------------0----|---------0----------------0-----|----------0---------------0----|
G|-0---0-------0---------0------0-|-----0-------0--------0-------0-|------0-------0-------0------0-|
C| chord diagramC|C|-2----------------2-------------|-0---------------0--------------|--0---------------0------------|
G|--------------------------------|--------------------------------|-------------------------------|
C| chord diagramC|C|--------------------------------|--------------------------------|-------------------------------|

D|----------4p2-------4--------------|-4-------2--------4/5\4---2p0-|-0h2--------------------------|
B|----------0---------0--------0-----|-0-------0--------0-----------|-1----------------------------|
G|-----0---------0---------0-------0-|-0---0-------0----0-----------|-0----------------------------|
C| chord diagramC|C|-4------------------4--------------|-2----------------2-----------|-0----------------------------|
G|-----------------------------------|------------------------------|------------------------------|
C| chord diagramC|C|-----------------------------------|------------------------------|------------------------------|

Legend

h=Hammer-on
p=Pull-off
o=Hit above sound hole w/wrist
/=slide up
\=slide down

Other versions of Lovely

LovelyChords
Lovely (Ver. 2)Chords
Lovely (Ver. 3)Chords
Lovely ukuleleChords
LovelyTabs

Almost there ...

Sign in to get your own page with links to favourite songs and more. You are just one click away...

Login with Facebook Login with Google