Log in

One click and you are in

Login with Facebook Login with Google

Why sign up and log in

Guitar Tabs Explorer
Billie Eilish tabs for Lost cause

Guitar tabs

A chord diagramE MajorE |----------------------------------------------------|
A chord diagramBB |--------------------------------------6--4--6--4----|
A chord diagramG+G |----------------------------------------------------|
A chord diagramD MajorD |----------------------------------------------------|
A chord diagramA augmentedA |----------------------------------------------------|
A chord diagramE MajorE |----------------------------------------------------|
----------------------------------------------------|
-----------------------------------6--4--6----------|
-----------2--3L-------3----------------------------|
----------------------------------------------------|
--1-------------------------------------------------|
----------------------------------------------------|


----------------------------------------------------|
--------------------------------------6--4----------|
-----------2--3-------------------------------------|
-----------------------------------8----------------|
----------------------------------------------------|
--4-------------------------------------------------|


-----------------------------------------1----------|
-----------------------------------4--4-------------|
-----------2--3L-------3----------------------------|
----------------------------------------------------|
----------------------------------------------------|
--2-------------------------------------------------|


--------------1-------------------------------------|
-----------------4--------2--1--------6--4--6--4----|
-----------3----------------------------------------|
----------------------------------------------------|
----------------------------------------------------|
--1-------------------------------------------------|

--------------------------------------1-------------|
--6--------------------------------2-----4--6--4----|
--------3-----3-----------------3-------------------|
----------------------------------------------------|
----------------------------------------------------|
----------------------------------------------------|


----------------------------------------------------|
--6-----------------------------------6--4--6--4----|
----------------------------------------------------|
----------------------------------------------------|
----------------------------------------------------|
----------------------------------------------------|


--1-----------------------------------1-------------|
-----------------------------------------4--2-------|
--------3-----3--------------------3----------------|
----------------------------------------------------|
----------------------------------------------------|
----------------------------------------------------|


----------------------------------------------------|
--1-----------------------------------6--4--6--4----|
----------------------------------------------------|
----------------------------------------------------|
----------------------------------------------------|
----------------------------------------------------|


--1-----------------------------------1-----1-------|
-----------------------------------2-----4-----4----|
--------3-----3-----------------3-------------------|
----------------------------------------------------|
----------------------------------------------------|
----------------------------------------------------|


--1-----------------------------------1-------------|
-----------------------------------------4--2-------|
----------------------------------------------------|
----------------------------------------------------|
----------------------------------------------------|
----------------------------------------------------|


----------------------------------------------------|
--4--------2--1L-------21-1-------------------------|
--------------------------------------3-------------|
----------------------------------------------------|
----------------------------------------------------|
----------------------------------------------------|


----------------------------------------------------|
-----------------------------------2-----------2----|
-----------------------------------------3----------|
----------------------------------------------------|
----------------------------------------------------|
----------------------------------------------------|



----------------------------------------------------|
--1-----------------------1-----1L-1--------1-------|
-----------1L-1-----------------------1--------3L---|
----------------------------------------------------|
----------------------------------------------------|
----------------------------------------------------|


----------------------------------------------------|
-----------------------------------2-----------2----|
--3--------------------------------------3----------|
----------------------------------------------------|
----------------------------------------------------|
----------------------------------------------------|


--------------------------------------------1-------|
--1-----------------------1-----2-----4--------4L---|
-----------1L-1L-------1----------------------------|
----------------------------------------------------|
----------------------------------------------------|
----------------------------------------------------|


--------1L----1--------------------------6-----6----|
--4-------------------------------------------------|
----------------------------------------------------|
----------------------------------------------------|
----------------------------------------------------|
----------------------------------------------------|


----------------------------------------------------|
--6--------4-----6-----4L-4-----------6--4-----4----|
--------------------------------------------6-------|
----------------------------------------------------|
----------------------------------------------------|
----------------------------------------------------|


----------------------------------------------------|
--------------2-----4L----4-----------------6--4----|
--------1--3----------------------------------------|
----------------------------------------------------|
----------------------------------------------------|
----------------------------------------------------|


--------------------------1-----1-----1-----1-------|
--6--4--6--4--6--4--6--4----------------------------|
----------------------------------------------------|
----------------------------------------------------|
----------------------------------------------------|
----------------------------------------------------|


--------------------1-----------------1-----1L------|
-----------------------4--6--4--6--4----------------|
--------3L----3-------------------------------------|
----------------------------------------------------|
----------------------------------------------------|
----------------------------------------------------|


--1-----------------1-----1-----1-----1-----1L------|
-----------------------4-----4-----4----------------|
----------------------------------------------------|
----------------------------------------------------|
----------------------------------------------------|
----------------------------------------------------|


--1-----------------1-----1-----1-----1-----1L------|
-----------------------4-----4-----4----------------|
--------3L----3-------------------------------------|
----------------------------------------------------|
----------------------------------------------------|
----------------------------------------------------|


--1-----------------------------1-----1-----1L------|
--------2-----4--------------------4----------------|
----------------------------------------------------|
----------------------------------------------------|
----------------------------------------------------|
----------------------------------------------------|


--1-----------------1-----1-----1-----1-----1L------|
-----------------------4-----4-----4----------------|
----------------------------------------------------|
----------------------------------------------------|
----------------------------------------------------|
----------------------------------------------------|


--1-----------------1-----1-----1-----1-----1L------|
-----------------------4-----4-----4----------------|
----------------------------------------------------|
----------------------------------------------------|
----------------------------------------------------|
----------------------------------------------------|


--1-----------------1-------------------------------|
-----------------------4--6--4--6--4--6-----7--6----|
--------3L----3-------------------------------------|
----------------------------------------------------|
----------------------------------------------------|
----------------------------------------------------|


----------------------------------------------------|
--4--2--4--2--1-----1L----1L-1--1-----2-------------|
-----------------3-----------------3--------3L------|
----------------------------------------------------|
----------------------------------------------------|
----------------------------------------------------|


----------------------------------------------------|
-----------------------------------------------6----|
--3-------------------------------------------------|
----------------------------------------------------|
----------------------------------------------------|
----------------------------------------------------|


----------------------------------------------------|
--4--6--4L-4--------------------------------6--4----|
--------------------2--3----------------------------|
----------------------------------------------------|
-----------1L-1-------------------------------------|
----------------------------------------------------|


-----------------------------------------------1----|
--6L-------6----------------------------------------|
--------------------2--3--------------------3-------|
----------------------------------------------------|
----------------------------------------------------|
-----------4L-4-------------------------------------|


----------------------------------------------------|
--4L-------4--------------------------------4--4----|
--------------------2--3----------------------------|
----------------------------------------------------|
----------------------------------------------------|
-----------2L-2-------------------------------------|


--1L-------1-----------1-----------------------1----|
--------------------------4--------2--1L-------1----|
--------------------3-------------------------------|
----------------------------------------------------|
----------------------------------------------------|
-----------1L-1-------------------------------------|


-----------------------------------------------1----|
--4--6--4--6--------------------------------2-------|
-----------------3-----3L-3L-3-----------3----------|
----------------------------------------------------|
----------------------------------------------------|
----------------------------------------------------|


-----1-----1L-1-------------------------------------|
--4-----4--------------------------------------6----|
----------------------------------------------------|
----------------------------------------------------|
----------------------------------------------------|
----------------------------------------------------|


-----1-----1-----------------------------------1----|
--4-----4-------------------------------------------|
-----------------3-----3L-3L-3--------------3-------|
----------------------------------------------------|
----------------------------------------------------|
----------------------------------------------------|


-----------------------------------------------1----|
--4--2-----1L-1-------------------------------------|
----------------------------------------------------|
----------------------------------------------------|
----------------------------------------------------|
----------------------------------------------------|


-----1-----1-----------------------------------1----|
--4-----4-----------------------------------2-------|
-----------------3-----3L-3L-3-----------3----------|
----------------------------------------------------|
----------------------------------------------------|
----------------------------------------------------|


-----1-----1L-1--------------------------------1----|
--4-----4-------------------------------------------|
----------------------------------------------------|
----------------------------------------------------|
----------------------------------------------------|
----------------------------------------------------|


----------------------------------------------------|
--4--2-----4--------2--1L-1-----2--1L-1-------------|
-----------------------------------------------3L---|
----------------------------------------------------|
----------------------------------------------------|
----------------------------------------------------|


----------------------------|
-----------------------2----|
--3-------------------------|
----------------------------|
----------------------------|
----------------------------|


----------------------------------------------------|
--------2--1L-1--------------------1-----1L-1-------|
--3-----------------1L----1--------------------1L---|
----------------------------------------------------|
----------------------------------------------------|
----------------------------------------------------|


----------------------------------------------------|
-----1--------------------------------------2-------|
--1-----3L----3L-3----------------------------------|
----------------------------------------------------|
----------------------------------------------------|
----------------------------------------------------|


----------------------------------------------------|
--------2--1L-1--------------------1L-1--2-----4----|
--3-------------------------------------------------|
--------------------6L----6-------------------------|
----------------------------------------------------|
----------------------------------------------------|


-----1-----------1L-------1-------------------------|
--------4-------------------------------------------|
----------------------------------------------------|
----------------------------------------------------|
----------------------------------------------------|
----------------------------------------------------|


--6-----6-------------------------------------------|
-----------6--------4-----6-----4L----4--------6----|
----------------------------------------------------|
----------------------------------------------------|
----------------------------------------------------|
----------------------------------------------------|


----------------------------------------------------|
--4--2--4--------------2L-2--4----------------------|
-----------------1--3-------------------------------|
----------------------------------------------------|
----------------------------------------------------|
----------------------------------------------------|


-----1-----1-----1-----1-----1-----1-----1-----1----|
--------4-----4-----4-----4-----4-------------------|
----------------------------------------------------|
----------------------------------------------------|
----------------------------------------------------|
----------------------------------------------------|


-----1-----------------------1-----1-----1-----1----|
--------------------------------4-----4-----4-------|
-----------------3L-------3-------------------------|
----------------------------------------------------|
----------------------------------------------------|
----------------------------------------------------|


-----1L-------1--------------1-----1-----1-----1----|
--------------------------------4-----4-----4-------|
----------------------------------------------------|
----------------------------------------------------|
----------------------------------------------------|
----------------------------------------------------|


-----1L-------1--------------1-----1-----1-----1----|
--------------------------------4-----4-----4-------|
-----------------3L-------3-------------------------|
----------------------------------------------------|
----------------------------------------------------|
----------------------------------------------------|


-----1L-------1--------------------------1-----1----|
-----------------2-----4L-4-----------------4-------|
----------------------------------------------------|
----------------------------------------------------|
----------------------------------------------------|
----------------------------------------------------|


-----1L-------1--------------1-----1-----1-----1----|
--------------------------------4-----4-----4-------|
----------------------------------------------------|
----------------------------------------------------|
----------------------------------------------------|
----------------------------------------------------|


-----1L-------1--------------1-----1-----1-----1----|
--------------------------------4-----4-----4-------|
----------------------------------------------------|
----------------------------------------------------|
----------------------------------------------------|
----------------------------------------------------|



-----1L-------1--------------1-----1-----1-----1----|
--------------------------------4-----4-----4-------|
-----------------3L-------3-------------------------|
----------------------------------------------------|
----------------------------------------------------|
----------------------------------------------------|


----------------------------------------------------|
-----7--6--4--2--4--2--1-----1L-------1--1-----2----|
--------------------------3-----------------3-------|
----------------------------------------------------|
----------------------------------------------------|
----------------------------------------------------|


----------------------------------------------------||
----------------------------------------------------||
-----3L-------3-------------------------------------||
----------------------------------------------------||
----------------------------------------------------||
----------------------------------------------------||

🏷Legend
L - tied note
x - dead note
h - hammer on/pull off
b - bend
s - slide
~ - vibrato
g - ghost note
> - accentuated note
t - trill
M - palm mute
. - staccato
P - popping (bass)
S - slapping (bass)
+ - tapping
W - wide vibrato
< - fade in
w - whammy bar
= - tremolo picking
v - brush up
^ - brush down
V - pick stroke up
n - pick stroke down

Other versions of Lost Cause

Lost causeChords
Lost cause ukuleleChords

Almost there ...

Sign in to get your own page with links to favourite songs and more. You are just one click away...

Login with Facebook Login with Google