Log in

One click and you are in

Login with Facebook Login with Google

Why sign up and log in

Guitar Tabs Explorer
Billie Eilish bass tabs for Lost cause

Bass tabs

Tuning: Standard (E A D G)

♫ Intro:

G|--------3------8h10---|--------3------10p8--|--------3------8h10-|-------10p8----6p5----3---|
D|------3------x--------|------3------x-------|-------------x------|-----x--------------------|
A|--1-------------------|---------------------|--------------------|--------------------------|
E|----------------------|--4------------------|--2-----------------|--1-----------------------|
Verse 1:

G|--------3------8h10---|--------3------10p8--|--------3------8h10-|-------10p8----6p5----3---|
D|------3------x--------|------3------x-------|-------------x------|-----x--------------------|
A|--1-------------------|---------------------|--------------------|--------------------------| x2
E|----------------------|--4------------------|--2-----------------|--1-----------------------|


♫ Pre-Chorus:

G|----------3----8h10---|----------3----10p8--|----------3----8h10-|--------------10p8--6p5---|
D|--------3----x--------|--------3----x-------|--------3----x------|------------x-------------|
A|--1-------------------|---------------------|--------------------|--------------------------| x2
E|----------------------|--4------------------|--2-----------------|--1-----------------------|


♫ Chorus:

G|--------3-------------|--------3------------|--------3------8h10-|-------10p8----6p5----3---|
D|------3---------------|------3--------------|-------------x------|-----x--------------------|
A|--1-------------------|---------------------|--------------------|--------------------------|
E|----------------------|--4------------------|--2-----------------|--1-----------------------|

G|--------3---6p5-----8h10-|--------3---6p5-----10p8-|-------3----6p5-----8h10-|-------10p8----6p5----3---|
D|------3---------8p6------|------3---------8p6------|----------3-----8p6------|-----x--------------------|
A|--1----------------------|-------------------------|-------------------------|--------------------------|
E|-------------------------|--4----------------------|--2----------------------|--1-----------------------|

Verse 2:

G|--------3------8h10---|--------3------10p8--|--------3------8h10-|-------10p8----6p5----3---|
D|------3------x--------|------3------x-------|-------------x------|-----x--------------------|
A|--1-------------------|---------------------|--------------------|--------------------------| x3
E|----------------------|--4------------------|--2-----------------|--1-----------------------|


♫ Pre-Chorus:

G|----------3----8h10---|----------3----10p8--|----------3----8h10-|--------------10p8--6p5---|
D|--------3----x--------|--------3----x-------|--------3----x------|------------x-------------|
A|--1-------------------|---------------------|--------------------|--------------------------| x2
E|----------------------|--4------------------|--2-----------------|--1-----------------------|


♫ Chorus:

G|--------3------8h10---|--------3------10p8--|--------3------8h10-|-------10p8----6p5----3---|
D|------3------x--------|------3------x-------|-------------x------|-----x--------------------|
A|--1-------------------|---------------------|--------------------|--------------------------|
E|----------------------|--4------------------|--2-----------------|--1-----------------------|

G|--------3---6p5-----8h10-|--------3---6p5-----10p8-|-------3----6p5-----8h10-|-------10p8----6p5----3---|
D|------3---------8p6------|------3---------8p6------|-----3----3-----8p6------|-----x--------------------|
A|--1----------------------|-------------------------|-------------------------|--------------------------|
E|-------------------------|--4----------------------|--2----------------------|--1-----------------------|


♫ Outro:

No bass


************************************

| x  Dead note
| h  Hammer-on
| p  Pull-off

************************************

Almost there ...

Sign in to get your own page with links to favourite songs and more. You are just one click away...

Login with Facebook Login with Google