Search tabs and chords

Search for song, artist or band

Log in

One click and you are in

Login with Facebook Login with Google

Why sign up and log in

Guitar Tabs Explorer
Billie Eilish guitar tabs for Idontwannabeyouanymore

Guitar tabs

Tuning: D chord diagramDD G chord diagramGG B chord diagramBB E chord diagramEE (D chord diagramDD G chord diagramGG B chord diagramBB E chord diagramEE)

Key: G chord diagramGG

Difficulty: Novice

Verse:
"Don't be that way...."
e|-0-------------0-------------0--------------------|
B|----0-3-0--0-3----0-3-0--0-3----0-3-0--0-3--0-----|  X2
G|----------------------------------------------2---|
D|--------------------------------------------------|

Chorus:
"If teardrops could be bottled..."
e|-0-3-7-5--0-3-7-5--0-3-7-5-5--0-3-7-5--0-3-7-5--0-3-7-5-5-3-2--0-----|
B|-----------------------------------------------------------------4---|  X2
G|---------------------------------------------------------------------|
D|---------------------------------------------------------------------|

"I don't wanna be you anymore."
e|-0-2-3-5-7-2--3-2-2-0---|
B|------------------------|
G|------------------------|
D|------------------------|

Verse:
"Hands getting cold..."
e|-0------------0--------------0---0-2-3-7-2-0-----|
B|---0-3-0--0-3---3-0-3-0--0-3---3-------------2---|
G|-------------------------------------------------|
D|-------------------------------------------------|

"Hurt I can't shake..."
e|-0-------------0-------------0--------------------|
B|----0-3-0--0-3----0-3-0--0-3----0-3-0--0-3--0-----|
G|----------------------------------------------2---|
D|--------------------------------------------------|

Chorus:
"If teardrops could be bottled..."
e|-0-3-7-5--0-3-7-5--0-3-7-5-5--0-3-7-5--0-3-7-5--0-3-7-5-5-3-2--0-----|
B|-----------------------------------------------------------------4---|  X2
G|---------------------------------------------------------------------|
D|---------------------------------------------------------------------|

Outro:
"I don't wanna be you..."
e|-0-2-3-5-7-2--0-2-3-5-7-2--0-2-3-5-10-7-0---------|
B|------------------------------------------3-3-0---|
G|--------------------------------------------------|
D|--------------------------------------------------|

Other versions of Idon'twannabeyouanymore

Idon'twannabeyouanymoreChords
Idon'twannabeyouanymore (Ver. 2)Chords
Idon'twannabeyouanymore ukuleleChords
Idon'twannabeyouanymore ukulele (Ver. 2)Chords
Idon'twannabeyouanymore (Ver. 2)Tabs

Almost there ...

Sign in to get your own page with links to favourite songs and more. You are just one click away...

Login with Facebook Login with Google