Search tabs and chords

Search for song, artist or band

Log in

One click and you are in

Login with Facebook Login with Google

Why sign up and log in

Guitar Tabs Explorer
Billie Eilish bass tabs for Idontwannabeyouanymore

Idon'twannabeyouanymore bass tab by Billie Eilish

Billie Eilish bass tabs for Idontwannabeyouanymore

Bass tabs

Billie Eilish - idontwannabeyouanymore


L   - Tied Note
.   - Staccato
/3\ - Triplet

Intro

G|--------------------------------------|------------------------------------|
D|--------------------------------------|------------------------------------|
A|--------------------------------------|------------------------------------|
E|--------------------------------------|------------------------------------|
   1  +  +  2  +  +  3  +  +  4  +  +    1  +  +  2  +  +  3  +  +  4  +  +

G|--------------------------------------|------------------------------------|
D|--------------------------------------|------------------------------------|
A|--------------------------------------|------------------------------------|
E|--------------------------------------|------------------------------------|
   1  +  +  2  +  +  3  +  +  4  +  +    1  +  +  2  +  +  3  +  +  4  +  +


Verse 1

G|-------------------------------------|-------------------------------------|
D|-------------------------------------|-------------------------------------|
A|-------------------------------------|-------------------------------------|
E|-------------------------------------|-------------------------------------|
   1  +  +  2  +  +  3  +  +  4  +  +    1  +  +  2  +  +  3  +  +  4  +  +

G|-------------------------------------|-------------------------------------|
D|-------------------------------------|-------------------------------------|
A|-------------------------------------|-------------------------------------|
E|-------------------------------------|-------------------------------------|
   1  +  +  2  +  +  3  +  +  4  +  +    1  +  +  2  +  +  3  +  +  4  +  +

                  /3\                                   /3\
G|-------------------5.-------4--2-----|-------------------------------------|
D|------------------5---------------5--|-------------------5.-------5--------|
A|-3-----------L--L--------------------|------------------5------------5-----|
E|-------------------------------------|-3-----------L--L-----------------3--|
   1  +  +  2  +  +  3  +  +  4  +  +    1  +  +  2  +  +  3  +  +  4  +  +

                  /3\                                   /3\
G|-------------------------------------|-------------------7-----------------|
D|-------------------7.-------7--------|------------------7------------5--7--|
A|------------------7------------7-----|-5-----------L--L--------------------|
E|-5-----------L--L-----------------5--|-------------------------------------|
   1  +  +  2  +  +  3  +  +  4  +  +    1  +  +  2  +  +  3  +  +  4  +  +

Chorus

G|----------5.----------------5.-------|-------------------------------------|
D|-------------------------------------|----------5.----------------5.-------|
A|-3-----------------3-----------------|-------------------------------------|
E|-------------------------------7--5--|-3-----------------3-----------7--5--|
   1  +  +  2  +  +  3  +  +  4  +  +    1  +  +  2  +  +  3  +  +  4  +  +

G|-------------------------------------|-------------------------------------|
D|----------7.----------------7.-------|----------9-----------------9--------|
A|-------------------------------------|-------------------------------------|
E|-5--------------5--5--------------5--|-7-----------------7-----------7--7--|
   1  +  +  2  +  +  3  +  +  4  +  +    1  +  +  2  +  +  3  +  +  4  +  +

G|----------5.----------------5.-------|-------------------------------------|
D|-------------------------------------|----------5.----------------5.-------|
A|-3-----------------3-----------------|-------------------------------------|
E|-------------------------------7--5--|-3-----------------3-----------7--5--|
   1  +  +  2  +  +  3  +  +  4  +  +    1  +  +  2  +  +  3  +  +  4  +  +

G|-------------------------------------|-------------------------------------|
D|----------7.----------------7.-------|----------9-----------------9--------|
A|-------------------------------------|-------------------------------------|
E|-5--------------5--5--------------5--|-7-----------------7-----------7--7--|
   1  +  +  2  +  +  3  +  +  4  +  +    1  +  +  2  +  +  3  +  +  4  +  +

G|-------------------------------------|-------------------------------------|
D|-------------------------------------|-------------------------------------|
A|-3-----------------------------------|-2-----------------------------------|
E|-------------------------------------|-------------------------------------|
   1  +  +  2  +  +  3  +  +  4  +  +    1  +  +  2  +  +  3  +  +  4  +  +

G|-------------------------------------|-------------------------------------|
D|-2-----------------------------------|-2-----------------------------------|
A|-------------------------------------|-------------------------------------|
E|-------------------------------------|-------------------------------------|
   1  +  +  2  +  +  3  +  +  4  +  +    1  +  +  2  +  +  3  +  +  4  +  +


Verse 2
                  /3\                                   /3\
G|-------------------5.-------4--2-----|-------------------------------------|
D|------------------5---------------5--|-------------------5.-------5--------|
A|-3-----------L--L--------------------|------------------5------------5-----|
E|-------------------------------------|-3-----------L--L-----------------3--|
   1  +  +  2  +  +  3  +  +  4  +  +    1  +  +  2  +  +  3  +  +  4  +  +

                  /3\                                   /3\
G|-------------------------------------|-------------------7-----------------|
D|-------------------7.-------7--------|------------------7------------5-----|
A|------------------7------------7-----|----------------------------------5--|
E|-5-----------L--L-----------------5--|-3-----------L--L--------------------|
   1  +  +  2  +  +  3  +  +  4  +  +    1  +  +  2  +  +  3  +  +  4  +  +

                  /3\         /3\/3\/3\                 /3\
G|-------------------5.-------9129-----|-------------------------------------|
D|------------------5--------------9129|-------------------5.-------5--------|
A|-3-----------L--3--------------------|------------------5------------5-----|
E|-------------------------------------|-3-----------L--3-----------------3--|
   1  +  +  2  +  +  3  +  +  4  +  +    1  +  +  2  +  +  3  +  +  4  +  +

                  /3\                                   /3\
G|-------------------------------------|-------------------7-----------------|
D|-------------------7.-------7--------|------------------7------------5--7--|
A|------------------7------------7-----|-5-----------L--L--------------------|
E|-5-----------L--L-----------------5--|-------------------------------------|
   1  +  +  2  +  +  3  +  +  4  +  +    1  +  +  2  +  +  3  +  +  4  +  +


Chorus

G|----------5.----------------5.-------|-------------------------------------|
D|-------------------------------------|----------5.----------------5.-------|
A|-3-----------------3-----------------|-------------------------------------|
E|-------------------------------7--5--|-3-----------------3-----------7--5--|
   1  +  +  2  +  +  3  +  +  4  +  +    1  +  +  2  +  +  3  +  +  4  +  +

G|-------------------------------------|-------------------------------------|
D|----------7.----------------7.-------|----------9-----------------9--------|
A|-------------------------------------|-------------------------------------|
E|-5--------------5--5--------------5--|-7-----------------7-----------7--7--|
   1  +  +  2  +  +  3  +  +  4  +  +    1  +  +  2  +  +  3  +  +  4  +  +

G|----------5.----------------5.-------|-------------------------------------|
D|-------------------------------------|----------5.----------------5.-------|
A|-3--3--3-----------3--3--3-----------|-------------------------------------|
E|-------------------------------7--5--|-3--3--3-----------3--3--3-----7--5--|
   1  +  +  2  +  +  3  +  +  4  +  +    1  +  +  2  +  +  3  +  +  4  +  +

G|-------------------------------------|-------------------------------------|
D|----------7.----------------7.-------|----------9-----------------9--------|
A|-------------------------------------|-------------------------------------|
E|-5--5--5--------5--5--5--5--------5--|-7-----------------7-----------7--7--|
   1  +  +  2  +  +  3  +  +  4  +  +    1  +  +  2  +  +  3  +  +  4  +  +

G|-------------------------------------|-------------------------------------|
D|-------------------------------------|-------------------------------------|
A|-3-----------------------------------|-2-----------------------------------|
E|-------------------------------------|-------------------------------------|
   1  +  +  2  +  +  3  +  +  4  +  +    1  +  +  2  +  +  3  +  +  4  +  +

G|-------------------------------------|-------------------------------------|
D|-------------------------------------|-------------------------------------|
A|-3-----------------------------------|-2-----------------------------------|
E|-------------------------------------|-------------------------------------|
   1  +  +  2  +  +  3  +  +  4  +  +    1  +  +  2  +  +  3  +  +  4  +  +


Outro

G|--------------------------------------|------------------------------------|
D|--------------------------------------|------------------------------------|
A|--------------------------------------|------------------------------------|
E|--------------------------------------|------------------------------------|
   1  +  +  2  +  +  3  +  +  4  +  +    1  +  +  2  +  +  3  +  +  4  +  +

G|--------------------------------------|------------------------------------|
D|-2------------------------------------|-L----------------------------------|
A|--------------------------------------|------------------------------------|
E|--------------------------------------|------------------------------------|
   1  +  +  2  +  +  3  +  +  4  +  +    1  +  +  2  +  +  3  +  +  4  +  +

Almost there ...

Sign in to get your own page with links to favourite songs and more. You are just one click away...

Login with Facebook Login with Google