Log in

One click and you are in

Login with Facebook Login with Google

Why sign up and log in

Guitar Tabs Explorer
Billie Eilish guitar tabs for Idontwannabeyouanymore (Ver. 2)

Idon'twannabeyouanymore tab by Billie Eilish (Ver. 2)

Billie Eilish guitar tabs for Idontwannabeyouanymore (Ver. 2)

Guitar tabs

Tuning: Standard (E A D G B E)

Key: A chord diagramC majorC

Difficulty: Intermediate

Standard tuning (EADGBE)
No Capo
Chords:
A chord diagramCmaj7Cmaj7 A chord diagramGmaj7Gmaj7 A chord diagramAm7Am7 A chord diagramD MajorD A chord diagramB7B7 A chord diagramC majorC A chord diagramEm9Em9

       A chord diagramCmaj7Cmaj7                     A chord diagramGmaj7Gmaj7                 A chord diagramAm7Am7
e|--7---7---7------7--5--3----2---2---2--2--2----3---3---3----3---3h5----|
B|---8---8---8-----8--7--5-----3---3---3---3-------5---5---3---5---------|
G|----9---9---9-----------------4---4---4------------5---5---5-----------|
D|-----------------------------------------------------------------------|
A|-------------------------------------------------0--------0------------|
E|--8--------8----------------3--------3---------------------------------|

        A chord diagramGmaj7Gmaj7            A chord diagramCmaj7Cmaj7                         A chord diagramGmaj7Gmaj7
e|--2---2---2---2------7---7---7--------7--5--3-----2---2---2--2-2-------|
B|---3---3---3---3------8---8---8-------8--3--5------3---3---3--3--------|
G|----4---4---4---4------9---9---9--------------------4---4---4----------|
D|-----------------------------------------------------------------------|
A|-----------------------------------------------------------------------|
E|--3------3----------8--------8--------------------3-------3------------|

        A chord diagramAm7Am7                 A chord diagramD MajorD
e|--3---3---3---3----------0-----2----0-2-3------------------------------|
B|---5---5---5---5----3---3---3---3--------------------------------------|
G|----5---5---5---5-----2------2---2-------------------------------------|
D|--0-------0---------0------0-------0-----------------------------------|
A|-----------------------------------------------------------------------|
E|-----------------------------------------------------------------------|

          A chord diagramCmaj7Cmaj7                       A chord diagramGmaj7Gmaj7
e|-------7----7---------7-------------2---2---------2--------------------|
B|-------8----8---------8-------------3---3---------3--------------------|
G|-------9----9---------9-------------4---4---------4--------------------|
D|-------x----x---------x-------------x---x---------x--------------------|
A|-------x----x---------x-------------x---x---------x--------------------|
E|-8-8-8-x----x---8-8-8-x-------3-3-3-x---x---3-3-3-x--------------------|

           A chord diagramAm7Am7                     A chord diagramB7B7
e|-------3----3---------3------------2-------2--3------------------------|
B|-------5----5---------5----4----5--------5-----------------------------|
G|-------5----5---------5------2---2---2---------------------------------|
D|-------x----x---------x-------4---4---4--------------------------------|
A|-------x----x---------x----2---2---2---2-------------------------------|
E|-5-5-5-x----x---5-5-5-x------------------------------------------------|

e|-------7----7---------7-------------2---2---------2--------------------|
B|-------8----8---------8-------------3---3---------3--------------------|
G|-------9----9---------9-------------4---4---------4--------------------|
D|-------x----x---------x-------------x---x---------x--------------------|
A|-------x----x---------x-------------x---x---------x--------------------|
E|-8-8-8-x----x---8-8-8-x-------3-3-3-x---x---3-3-3-x--------------------|

           A chord diagramAm7Am7                          A chord diagramD MajorD
e|-------3----3---------3------------0-----2-----0-2-3-------------------|
B|-------5----5---------5-------3--3----3---3----------------------------|
G|-------5----5---------5--------2-------2---2---------------------------|
D|-------x----x---------x-------0-----0----0---0-------------------------|
A|-------x----x---------x------------------------------------------------|
E|-5-5-5-x----x---5-5-5-x------------------------------------------------|

          A chord diagramC majorC                             A chord diagramB7B7
e|--0----2-----3-----5--------7----------7-----2h3-2----2----0---0---0---|
G|---1-----1----1-----5----------7-------7--------------0---------0---0--|
B|----0-----0----0-----------------8-----8--------------0----------0---0-|
D|----------------------5-------7---7----7-------------------------------|
A|--3-----3---3----3---------------------9-------------------------------|
E|----------------------------7--------7-7---------------0------0--------|

************************************

| h  Hammer-on
| x  Dead note

************************************

Other versions of Idon'twannabeyouanymore

Idon'twannabeyouanymoreChords
Idon'twannabeyouanymore (Ver. 2)Chords
Idon'twannabeyouanymore (Ver. 3)Chords
Idon'twannabeyouanymore ukuleleChords
Idon'twannabeyouanymore ukulele (Ver. 2)Chords
Idon'twannabeyouanymoreTabs

Almost there ...

Sign in to get your own page with links to favourite songs and more. You are just one click away...

Login with Facebook Login with Google