Search tabs and chords

Search for song, artist or band

Log in

One click and you are in

Login with Facebook Login with Google

Why sign up and log in

Guitar Tabs Explorer
Billie Eilish guitar tabs for I wish you were gay

Guitar tabs

Tuning: Standard (E chord diagramEE A chord diagramAA D chord diagramDD G chord diagramGG B chord diagramBB E chord diagramEE)

Verse:

e|---------------------------------------------------------------------------|
B|------0--1h3--1--0--------------------0h1-0--------------------------------|
G|---2----------------2---------2--0h2--0-----2--2p0-------------------------|
D|----------------------0-------0----------------2---------------------------|
A|---------0-----------------------------------------------------------------|
E|----------------x-------------x-------3--x-----0------x--------------------|
e|---------------------------------------------------------------------------|
B|-------0--1h3--1---0----------------0-3----3-------------------------------|
G|---0h2-------------------2---2--0h2--0-------------------------------------|
D|---------------------------0-----------------------------------------------|
A|----------0----------------------------------------------------------------|
E|-----------------x--------------x----3---x-3-----0---x---------------------|


e|---------------------------------------------------------------------------|
B|------0--1h3--1--0--------------------0h1-0--------------------------------|
G|-0h2----------------2---------2--0h2--0-------2--2p0-----------------------|
D|----------------2-----0-------0------------------2-------------------------|
A|---------0-----------------------------------------------------------------|
E|---------------x--------------x-------3----x-3---0-----x-------------------|


e|---------------------------------------------------------------------------|
B|-------0--1h3--1--0------------------0-------------------------------------|
G|---0h2---------------2-------2--0h2--0--2p0-2/4\2p0------------------------|
D|-----------------2-----0-----0-----------------------2---------------------|
A|----------0----------------------------------------------------------------|
E|----------------x------------x-------3-x----0------------x-----------------|

Chorus:

e|---5h7---5----3---0--------------------------------------------------------|
B|---5---8---5----3---0-0---0----0------/8-----------------------------------|
G|---5------------------0---0----0-------------------------------------------|
D|--------------0------------------------------------------------------------|
A|---0-----------------------------------------------------------------------|
E|---------x--------x---3-3-x-3-0---0--x-------------------------------------|


e|---5h7---5----3---0--------------------------------------------------------|
B|---5---8---5----3---0-0---0----0-------0-----------------------------------|
G|---5------------------0---0----0-------0-----------------------------------|
D|--------------0------------------------------------------------------------|
A|---0-----------------------------------------------------------------------|
E|---------x--------x---3-3-x-3-0---0--x-------------------------------------|


e|---5h7---5------3-----0----------------------------------------------------|
B|---5---8---5------3-3---3--3---3-------------------------------------------|
G|---5---------------------4---4---4\2p0-2/4--4------------------------------|
D|--------------0-----------------------------5------------------------------|
A|---0-----------------------------------------------------------------------|
E|---------x------------x--3-------x----------0------------------------------|


e|---5h7---5----7-7----------------------------------------------------------|
B|/8-5---8---8--7-----/10-8--------------------------------------------------|
G|---5----------7-------------/9-7-9-----------------------------------------|
D|--------------0--------------------9---------------------------------------|
A|---0-------------------10----------7---------------------------------------|
E|---------x--------x----------------0--x------------------------------------|


Verse:

e|---------------------------------------------------------------------------|
B|------0--1h3--1--0--------------------0h1-0--------------------------------|
G|---2----------------2---------2--0h2--0-----2--2p0-------------------------|
D|----------------------0-------0----------------2---------------------------|
A|---------0-----------------------------------------------------------------|
E|----------------x-------------x-------3--x-----0------x--------------------|


e|---------------------------------------------------------------------------|
B|-------0--1h3--1---0-----------------0-3----3------------------------------|
G|---0h2-------------------2---2--0h2--0-------------------------------------|
D|---------------------------0-----------------------------------------------|
A|----------0----------------------------------------------------------------|
E|-----------------x--------------x----3---x-3-----0---x---------------------|


e|---------------------------------------------------------------------------|
B|------0--1h3--1--0--------------------0h1-0--------------------------------|
G|-0h2----------------2---------2--0h2--0-------2--2p0-----------------------|
D|----------------2-----0-------0------------------2-------------------------|
A|---------0-----------------------------------------------------------------|
E|---------------x--------------x-------3----x-3---0-----x-------------------|


e|---------------------------------------------------------------------------|
B|-------0--1h3--1--0------------------0-------------------------------------|
G|---0h2---------------2-------2--0h2--0--2p0-2/4\2p0------------------------|
D|-----------------2-----0-----0-----------------------2---------------------|
A|----------0----------------------------------------------------------------|
E|----------------x------------x-------3-x----0------------x-----------------|


Chorus:

e|---5h7---5----3---0--------------------------------------------------------|
B|---5---8---5----3---0-0---0----0------/8-----------------------------------|
G|---5------------------0---0----0-------------------------------------------|
D|--------------0------------------------------------------------------------|
A|---0-----------------------------------------------------------------------|
E|---------x--------x---3-3-x-3-0---0--x-------------------------------------|


e|---5h7---5------3-2-5-3----------------------------------------------------|
B|---5---8---5--5-------0---0----0-------0-----------------------------------|
G|---5------------------0---0----0-------0-----------------------------------|
D|--------------0------------------------------------------------------------|
A|---0-----------------------------------------------------------------------|
E|---------x--------x---3-3-x-3-0---0--x-------------------------------------|


e|---5h7---5-------3----0----------------------------------------------------|
B|---5---8---5--------3---3--3---3-------------------------------------------|
G|---5---------------------4---4---4\2p0-2/4--4------------------------------|
D|--------------0-----------------------------5------------------------------|
A|---0-----------------------------------------------------------------------|
E|---------x------------x--3-------x----------0------------------------------|


e|---5h7---5----7-7----------------------------------------------------------|
B|/8-5---8---8--7-----/10-8--------------------------------------------------|
G|---5----------7-------------/9-7-9-----------------------------------------|
D|--------------0--------------------9---------------------------------------|
A|---0-------------------10----------7---------------------------------------|
E|---------x--------x----------------0--x------------------------------------|


Bridge:

e|-------7-5------5---5----5--5-5-3-5/7--5\3p0--0h3p0-0---2------------------|
B|--/7-8-----7--8---8---8--3-------------0------------1---1------------------|
G|-----5-----5-------------5-------------0------------2---2------------------|
D|-----7-----0-------------0------------------------------0------------------|
A|-----0----------------------------------------------0----------------------|
E|---------------------------------------0-----------------------------------|


e|-----------0---------------------------------------------------------------|
B|----/3-3-3-----------------------------------------------------------------|
G|-------------4--2-2-2p0-2p0-2h4-2p0----------------------------------------|
D|------------------0-------------2---2--------------------------------------|
A|---------------------------------------------------------------------------|
E|------------------3-------------0------------------------------------------|

                                           NH
e|----/7-7------------------6/7--10------------------------------------------|
B|---------5----3/5p0--/8-8-6/7-----10--10------0--5/8-5\3-------------------|
G|---------5-7--------------6/7------------12---0----------------------------|
D|---------7------------------------------------2----------------------------|
A|---------0----------------------------10-----------------------------------|
E|----------------------------------------------0----------------------------|


e|-----5h7-7----------------5/7--10------------------------------------------|
B|---0-------5---5---5-----------12-12-10----10h12p10------------------------|
G|-----------5-7---7---7--7-5/7-----------12---------------------------------|
D|-----------7--------------0----0-------------------------------------------|
A|-----------0---------------------------------------------------------------|
E|---------------------------------------------------------------------------|


Chorus:

e|---5h7---5----3---0--------------------------------------------------------|
B|---5---8---5----3---0-0---0----0------/8-----------------------------------|
G|---5------------------0---0----0-------------------------------------------|
D|--------------0------------------------------------------------------------|
A|---0-----------------------------------------------------------------------|
E|---------x--------x---3-3-x-3-0---0--x-------------------------------------|


e|---5h7---5----3---0--------------------------------------------------------|
B|---5---8---5----3---0-0---0----0-------0-----------------------------------|
G|---5------------------0---0----0-------0-----------------------------------|
D|--------------0------------------------------------------------------------|
A|---0-----------------------------------------------------------------------|
E|---------x--------x---3-3-x-3-0---0--x-------------------------------------|


e|---5h7---5------3-----0----------------------------------------------------|
B|---5---8---5------3-3---3--3---3-------------------------------------------|
G|---5---------------------4---4---4\2p0-2/4--4------------------------------|
D|--------------0-----------------------------5------------------------------|
A|---0-----------------------------------------------------------------------|
E|---------x------------x--3-------x----------0------------------------------|


e|---5h7---5----7-7----------------------------------------------------------|
B|/8-5---8---8--7-----/10-8--------------------------------------------------|
G|---5----------7-------------/9-7-9-----------------------------------------|
D|--------------0--------------------9---------------------------------------|
A|---0-------------------10----------7---------------------------------------|
E|---------x--------x----------------0--x------------------------------------|


e|---5h7---5----3----0-------------------------------------------------------|
B|/8-5---8---5--1--3---3--0--------------------------------------------------|
G|---5----------2---------0--------------------------------------------------|
D|--------------0---------0--------------------------------------------------|
A|---0-----------------------------------------------------------------------|
E|---------x---------x----3--------------------------------------------------|


************************************

| x   Dead note
| h   Hammer-on
| p   Pull-off
| /   Slide up
| \   Slide down
| NH  Natural harmonic

************************************

Other versions of I Wish You Were Gay

I wish you were gayChords

Almost there ...

Sign in to get your own page with links to favourite songs and more. You are just one click away...

Login with Facebook Login with Google