Search tabs and chords

Search for song, artist or band

Log in

One click and you are in

Login with Facebook Login with Google

Why sign up and log in

Guitar Tabs Explorer
Billie Eilish guitar tabs for I love you

Guitar tabs

Tuning: Standard (E chord diagramEE A chord diagramAA D chord diagramDD G chord diagramGG B chord diagramBB E chord diagramEE)

Key: F chord diagramFF

Difficulty: Intermediate

Intro:

e|--------|-----------0-----------------0-------|----------0-----------------0--------|
B|--------|--0-----------------0----------------|-0-----------------0-----------------|
G|-----2--|--------2--------2--------2--------2-|-------2--------2--------2--------2--|
D|--3-----|-----3--------3--------3--------3----|----3--------3--------3--------3-----|
A|--------|-------------------------------------|-------------------------------------|
E|--------|-------------------------------------|-------------------------------------|

e|-----------0-----------------0-------|----------0-----------------0--------|
B|--0-----------------0----------------|-0-----------------0-----------------|
G|--------0--------0--------0--------0-|-------0--------0--------0--------0--|
D|-----2--------2--------2--------2----|----2--------2--------2--------2-----|
A|--3----------------------------------|-------------------------------------|
E|-------------------------------------|-------------------------------------|


Verse:

e|-----------0-----------------0-------|----------0-----------------0--------|
B|--0-----------------0----------------|-0-----------------0-----------------|
G|--------2--------2--------2--------2-|-------2--------2--------2--------2--|
D|--3--3--------3--------3--------3----|----3--------3--------3--------3-----|
A|-------------------------------------|-------------------------------------|
E|-------------------------------------|-------------------------------------|

e|-----------0-----------------0-------|----------0-----------------0--------|
B|--0-----------------0----------------|-0-----------------0-----------------|
G|--------0--------0--------0--------0-|-------0--------0--------0--------0--|    Repeat x3
D|-----2--------2--------2--------2----|----2--------2--------2--------2-----|
A|--3----------------------------------|-------------------------------------|
E|-------------------------------------|-------------------------------------|

e|-----------0-----------------0-------|----------0-----------------0--------|
B|--0-----------------0----------------|-0-----------------0-----------------|
G|--------2--------2--------2--------2-|-------2--------2--------2--------2--|
D|--3--3--------3--------3--------3----|----3--------3--------3--------3-----|
A|-------------------------------------|-------------------------------------|
E|-------------------------------------|-------------------------------------|

e|-----------0-----------------0-------|----------0-------------------------|
B|--0-----------------0----------------|-0-----------------0----------------|
G|--------0--------0--------0--------0-|-------0--------0-------------------|
D|-----2--------2--------2--------2----|----2--------2----------------------|
A|--3----------------------------------|------------------------------------|
E|-------------------------------------|------------------------------------|


Pre-Chorus:

e|-------------------------|-------------------------|
B|--------------0-----0----|-1-----1-----3-----3-----|
G|--2-----2----------------|-------------------------|
D|-----3-----3-----3-----3-|----3-----3-----3-----3--|
A|-------------------------|-------------------------|
E|-------------------------|-------------------------|

e|----------------0------0-----|-1------1------3------3---|
B|--3------3-------------------|--------------------------|
G|-----------------------------|--------------------------|
D|-----------------------------|--------------------------|
A|------2------2------2------2-|------2------2------2-----|
E|-----3------3------3------3--|-----3------3------3------|


Chorus:

e|--------------------------------------|-------------------------------------|
B|--1---------1--------1--------1-------|-0--------0--------0--------0--------|
G|---------2--------2--------2--------2-|-------2--------2--------2--------2--|
D|--2---2--------2--------2--------2----|----2--------2--------2--------2-----|
A|--------------------------------------|-------------------------------------|
E|--------------------------------------|-------------------------------------|

e|---------------------------------------|-------------------------------------|
B|--1---------1--------1--------1-3h-----|-0--------0--------0--------0--------|
G|---------0--------0--------0---------0-|-------0--------0--------0--------0--|
D|------2--------2--------2---------2----|----2--------2--------2--------2-----|
A|--3------------------------------------|-------------------------------------|
E|---------------------------------------|-------------------------------------|

e|--------------------------------------|----------------------------|
B|--1---------1--------1--------1-------|-0--------0--------0--------|
G|---------2--------2--------2--------2-|-------2--------2-----------|
D|--3---3--------3--------3--------3----|----3--------3--------------|
A|--------------------------------------|----------------------------|
E|--------------------------------------|----------------------------|

Verse:

e|-----------0-----------------0-------|----------0-----------|
B|--0-----------------0----------------|-0-----------------0--|
G|--------0--------0--------0--------0-|-------0--------0-----|
D|-----2--------2--------2--------2----|----2--------2--------|
A|--3----------------------------------|----------------------|
E|-------------------------------------|----------------------|

e|-----------0-----------------0-------|----------0-----------------0--------|
B|--0-----------------0----------------|-0-----------------0-----------------|
G|--------2--------2--------2--------2-|-------2--------2--------2--------2--|
D|--3--3--------3--------3--------3----|----3--------3--------3--------3-----|
A|-------------------------------------|-------------------------------------|
E|-------------------------------------|-------------------------------------|

e|-----------0-----------------0-------|----------0-----------------0--------|
B|--0-----------------0----------------|-0-----------------0-----------------|
G|--------0--------0--------0--------0-|-------0--------0--------0--------0--|    Repeat x3
D|-----2--------2--------2--------2----|----2--------2--------2--------2-----|
A|--3----------------------------------|-------------------------------------|
E|-------------------------------------|-------------------------------------|


e|-----------0-----------------0-------|----------0-----------------0--------|
B|--0-----------------0----------------|-0-----------------0-----------------|
G|--------2--------2--------2--------2-|-------2--------2--------2--------2--|
D|--3--3--------3--------3--------3----|----3--------3--------3--------3-----|
A|-------------------------------------|-------------------------------------|
E|-------------------------------------|-------------------------------------|

e|-----------0-----------------0-------|----------0-------------------------|
B|--0-----------------0----------------|-0-----------------0----------------|
G|--------0--------0--------0--------0-|-------0--------0-------------------|
D|-----2--------2--------2--------2----|----2--------2----------------------|
A|--3----------------------------------|------------------------------------|
E|-------------------------------------|------------------------------------|


Pre-Chorus:

e|-------------------------|-------------------------|
B|--------------0-----0----|-1-----1-----3-----3-----|
G|--2-----2----------------|-------------------------|
D|-----3-----3-----3-----3-|----3-----3-----3-----3--|
A|-------------------------|-------------------------|
E|-------------------------|-------------------------|

e|----------------0------0-----|-1------1------3------3--|
B|--3------3-------------------|-------------------------|
G|-----------------------------|-------------------------|
D|-----------------------------|-------------------------|
A|------2------2------2------2-|-----2------2------2-----|
E|-----3------3------3------3--|----3------3------3------|


Chorus:

e|--------------------------------------|-------------------------------------|
B|--1---------1--------1--------1-------|-0--------0--------0--------0--------|
G|---------2--------2--------2--------2-|-------2--------2--------2--------2--|
D|--2---2--------2--------2--------2----|----2--------2--------2--------2-----|
A|--------------------------------------|-------------------------------------|
E|--------------------------------------|-------------------------------------|

e|---------------------------------------|-------------------------------------|
B|--1---------1--------1--------1-3h-----|-0--------0--------0--------0--------|
G|---------0--------0--------0---------0-|-------0--------0--------0--------0--|
D|------2--------2--------2---------2----|----2--------2--------2--------2-----|
A|--3------------------------------------|-------------------------------------|
E|---------------------------------------|-------------------------------------|

e|--------------------------------------|-------------------------------|
B|--1---------1--------1--------1-------|-0--------0--------0--------0--|
G|---------2--------2--------2--------2-|-------2--------2--------2-----|
D|--3---3--------3--------3--------3----|----3--------3--------3--------|
A|--------------------------------------|-------------------------------|
E|--------------------------------------|-------------------------------|


e|-----------0-----------------0-------|----------0-----------------0--------|
B|--0-----------------0----------------|-0-----------------0-----------------|
G|--------0--------0--------0--------0-|-------0--------0--------0--------0--|
D|-----2--------2--------2--------2----|----2--------2--------2--------2-----|
A|--3----------------------------------|-------------------------------------|
E|-------------------------------------|-------------------------------------|


Bridge:

e|--1--------1--------1--------1--------|
B|--------3--------3--------3--------3--|
G|-----2--------2--------2--------2-----|
D|--0-----------------------------------|
A|--------------------------------------|
E|--------------------------------------|

e|--0-----------------0-----------------|
B|-----------0-----------------0--------|
G|--------0--------0--------0--------0--|
D|--2--2--------2--------2--------2-----|
A|--------------------------------------|
E|-(0)----------------------------------|

e|-----------0-----------------0-------|----------0-----------|
B|--1-----------------1----------------|-0-----------------0--|
G|--------2--------2--------2--------2-|-------2--------2-----|
D|--3--3--------3--------3--------3----|----3--------3--------|
A|-------------------------------------|----------------------|
E|-------------------------------------|----------------------|


Pre-Chorus]

e|-------------------|-----------------|
B|-----------0-------|-1--------3------|
G|--2----------------|-----------------|
D|--3--------3-------|-3--------3------|
A|-------------------|-----------------|
E|-------------------|-----------------|

e|----------------0------0-----|-1------1------3------3--|
B|--3------3-------------------|-------------------------|
G|-----------------------------|-------------------------|
D|-----------------------------|-------------------------|
A|------2------2------2------2-|-----2------2------2-----|
E|-----3------3------3------3--|----3------3------3------|


Chorus:

e|---------------------------|------------------|
B|--1------------------------|-0----------------|
G|-------------------------2-|------------------|
D|--2-------------------2----|------------------|
A|--0------------------------|------------------|
E|---------------------------|------------------|

e|---------------------------|------------------|
B|--1-------------------1-3h-|-0----------------|
G|---------------------------|------------------|
D|--2----------------2-------|------------------|
A|--3-------------3----------|------------------|
E|---------------------------|------------------|

e|---------------------------|-------0----------|
B|--1------------------------|-0----------------|
G|--2----------------------2-|------------------|
D|--3-------------------3----|------------------|
A|---------------------------|------------------|
E|---------------------------|------------------|

Outro:

e|-----------0-----------------0-------|----------0-----------------0--------|
B|--0-----------------0----------------|-0-----------------0-----------------|
G|--------2--------2--------2--------2-|-------2--------2--------2--------2--|
D|--3--3--------3--------3--------3----|----3--------3--------3--------3-----|
A|-------------------------------------|-------------------------------------|
E|-------------------------------------|-------------------------------------|

e|-----------0-----------------0-------|----------0-----------------0--------|
B|--0-----------------0----------------|-0-----------------0-----------------|
G|--------0--------0--------0--------0-|-------0--------0--------0--------0--|
D|-----2--------2--------2--------2----|----2--------2--------2--------2-----|
A|--3----------------------------------|-------------------------------------|
E|-------------------------------------|-------------------------------------|

e|-----------0-----------------0-------|----------0-----------------0--------|
B|--0-----------------0----------------|-0-----------------0-----------------|
G|--------2--------2--------2--------2-|-------2--------2--------2--------2--|
D|--3--3--------3--------3--------3----|----3--------3--------3--------3-----|
A|-------------------------------------|-------------------------------------|
E|-------------------------------------|-------------------------------------|

e|-------------------|
B|--0----------------|
G|-------------------|
D|--2----------------|
A|--3----------------|
E|-------------------|

***********************************

| h   Hammer-on

***********************************

Other versions of I Love You

I love youChords
I love you (Ver. 2)Chords
I love you - introTabs

Almost there ...

Sign in to get your own page with links to favourite songs and more. You are just one click away...

Login with Facebook Login with Google