Search tabs and chords

Search for song, artist or band

Log in

One click and you are in

Login with Facebook Login with Google

Why sign up and log in

Guitar Tabs Explorer
Billie Eilish guitar tabs for I love you

Intro

Tuning: Standard (E chord diagramEE A chord diagramAA D chord diagramDD G chord diagramGG B chord diagramBB E chord diagramEE)

Difficulty: Intermediate

Intro:

e|------0-------0-------0-------0---|
B|--0-------0-------0-------0-------|
G|-2---2---2---2---2---2---2---2----|
D|3---3---3---3---3---3---3---3-----|
A|----------------------------------|
E|----------------------------------|

e|------0-------0-------0-------0---|
B|--0-------0-------0-------0-------|
G|-0---0---0---0---0---0---0---0----|
D|3---2---2---2---2---2---2---2-----|
A|--3-------------------------------|
E|----------------------------------|

Other versions of I Love You

I love youChords
I love you (Ver. 2)Chords
I love you ukuleleChords
I love youTabs
I love you (Ver. 2)Tabs

Almost there ...

Sign in to get your own page with links to favourite songs and more. You are just one click away...

Login with Facebook Login with Google