Log in

One click and you are in

Login with Facebook Login with Google

Why sign up and log in

Guitar Tabs Explorer
Billie Eilish guitar tabs for I love you (Ver. 2)

Guitar tabs with lyrics

Tuning: Standard (E A D G B E)

Key: A chord diagramC majorC

Difficulty: Intermediate
Intro:

   Fmaj7b5
e|-----|-------0-------------0------|-------0-------------0-|
B|-----|-0-------------0------------|-0-------------0-------|
G|---2-|-----2------2------2------2-|-----2------2------2---|
D|-3---|---3------3------3------3---|---3------3------3-----|
A|-----|----------------------------|-----------------------|
E|-----|-1-------------1------------|-1-------------1-------|

   A chord diagramCmaj7Cmaj7
e|-----|-------0-------------0------|-------0-------------0-|
B|-----|-0-------------0------------|-0-------------0-------|
G|---0-|-----0------0------0------0-|-----0------0------0---|
D|-2---|---2------2------2------2---|---2------2------2-----|
A|-----|-3-------------3------------|-3-------------3-------|
E|-----|----------------------------|-----------------------|


Verse 1:

   Fmaj7b5
e|-------0-------------0------|-------0-------------0------|
B|-0-------------0------------|-0-------------0------------|
G|-----2------2------2------2-|-----2------2------2------2-|
D|---3------3------3------3---|---3------3------3------3---|
A|----------------------------|----------------------------|
E|-1-------------1------------|-1-------------1------------|

   A chord diagramCmaj7Cmaj7
e|-------0-------------0------|-------0-------------0------|
B|-0-------------0------------|-0-------------0------------|
G|-----0------0------0------0-|-----0------0------0------0-|
D|---2------2------2------2---|---2------2------2------2---|
A|-3-------------3------------|-3-------------3------------|
E|----------------------------|----------------------------|

   Fmaj7b5
It's not true
                 A chord diagramCmaj7Cmaj7
Tell me I've been lied to
            Fmaj7b5      A chord diagramCmaj7Cmaj7
Crying isn't like you, ooh
                Fmaj7b5
What the hell did I do?
               A chord diagramCmaj7Cmaj7
Never been the type to
               Fmaj7b5           A chord diagramCmaj7Cmaj7
Let someone see right through, ooh


Chorus:

   A chord diagramFF             Fadd#11         A chord diagramFF             A chord diagramF6F6
e|-----------------------------|-----------------------------|
B|---------------0------0------|-1------1------3------3------|
G|-2------2--------------------|-----------------------------|
D|------3------3------3------3-|------3------3------3------3-|
A|----3------3------3------3---|----3------3------3------3---|
E|-1------1------1------1------|-1------1------1------1------|

   A chord diagramG MajorG             A chord diagramG6G6              A chord diagramG7G7            A chord diagramG MajorG
e|---------------0------0------|-1------1------3------3------|
B|-3------3--------------------|-----------------------------|
G|------0------0------0------0-|------0------0------0------0-|
D|----0------0------0------0---|----0------0------0------0---|
A|-----------------------------|-----------------------------|
E|-3------3------3------3------|-3------3------3------3------|

   A chord diagramA minorAm                        A chord diagramAsus2Asus2                     A chord diagramC majorC                         A chord diagramCmaj7Cmaj7
e|-------------------------|-------------------------|-------------------------|-------------------------|
B|-1-----1-----1-----1-----|-0-----0-----0-----0-----|-1-----1-----1-----1-----|-0-----0-----0-----0-----|
G|-----2-----2-----2-----2-|-----2-----2-----2-----2-|-----0-----0-----0-----0-|-----0-----0-----0-----0-|
D|---2-----2-----2-----2---|---2-----2-----2-----2---|---2-----2-----2-----2---|---2-----2-----2-----2---|
A|-0-----------0-----------|-0-----------0-----------|-3-----------3-----------|-3-----------3-----------|
E|-------------------------|-------------------------|-------------------------|-------------------------|

   A chord diagramFF                         F(b5)                     A chord diagramCmaj7Cmaj7
e|-------------------------|-------------------------|-------0-----------0-----|-------0-----------------|
B|-1-----1-----1-----1-----|-0-----0-----0-----------|-0-----------0-----------|-0-----------0-----------|
G|-----2-----2-----2-----2-|-----2-----2-------------|-----0-----0-----0-----0-|-----0-----0-------------|
D|---3-----3-----3-----3---|---3-----3---------------|---2-----2-----2-----2---|---2-----2---------------|
A|-------------------------|-------------------------|-3-----------3-----------|-3-----------3-----------|
E|-1-----------1-----------|-1-----------1-----------|-------------------------|-------------------------|

 A chord diagramFF               Fadd#11
Baby, won't you take it back?
     A chord diagramFF               A chord diagramF6F6
Say you were tryna make me laugh
     A chord diagramG MajorG                A chord diagramG6G6
And nothing has to change today
      A chord diagramG7G7            A chord diagramG MajorG          A chord diagramA minorAm   A chord diagramAsus2Asus2
You didn' t mean to say "I love you"
        A chord diagramC majorC   A chord diagramCmaj7Cmaj7                A chord diagramFF    F(b5)   A chord diagramCmaj7Cmaj7
I love you        and I don't want to,      ooh


Verse 2:

   Fmaj7b5
e|-------0-------------0------|-------0-------------0------|
B|-0-------------0------------|-0-------------0------------|
G|-----2------2------2------2-|-----2------2------2------2-|
D|---3------3------3------3---|---3------3------3------3---|
A|----------------------------|----------------------------|
E|-1-------------1------------|-1-------------1------------|

   A chord diagramCmaj7Cmaj7
e|-------0-------------0------|-------0-------------0------|
B|-0-------------0------------|-0-------------0------------|
G|-----0------0------0------0-|-----0------0------0------0-|
D|---2------2------2------2---|---2------2------2------2---|
A|-3-------------3------------|-3-------------3------------|
E|----------------------------|----------------------------|

(this pattern is played again after 6 bars of vocal and piano)

   Fmaj7b5              A chord diagramCmaj7Cmaj7
Up all night on another red-eye
              Fmaj7b5           A chord diagramCmaj7Cmaj7
Wish we never learned to fly, I
                Fmaj7b5
Maybe we should just try
                    A chord diagramCmaj7Cmaj7
To tell ourselves a good lie
                Fmaj7b5          A chord diagramCmaj7Cmaj7
I didn't mean to make you cry, I


Chorus:

   A chord diagramFF             Fadd#11         A chord diagramFF             A chord diagramF6F6
e|-----------------------------|-----------------------------|
B|---------------0------0------|-1------1------3------3------|
G|-2------2--------------------|-----------------------------|
D|------3------3------3------3-|------3------3------3------3-|
A|----3------3------3------3---|----3------3------3------3---|
E|-1------1------1------1------|-1------1------1------1------|

   A chord diagramG MajorG             A chord diagramG6G6              A chord diagramG7G7            A chord diagramG MajorG
e|---------------0------0------|-1------1------3------3------|
B|-3------3--------------------|-----------------------------|
G|------0------0------0------0-|------0------0------0------0-|
D|----0------0------0------0---|----0------0------0------0---|
A|-----------------------------|-----------------------------|
E|-3------3------3------3------|-3------3------3------3------|

   A chord diagramA minorAm                        A chord diagramAsus2Asus2                     A chord diagramC majorC                         A chord diagramCmaj7Cmaj7
e|-------------------------|-------------------------|--------------------------|-------------------------|
B|-1-----1-----1-----1-----|-0-----0-----0-----0-----|-1-----1-----1-----1h3----|-0-----0-----0-----0-----|
G|-----2-----2-----2-----2-|-----2-----2-----2-----2-|-----0-----0-----0------0-|-----0-----0-----0-----0-|
D|---2-----2-----2-----2---|---2-----2-----2-----2---|---2-----2-----2------2---|---2-----2-----2-----2---|
A|-0-----------0-----------|-0-----------0-----------|-3-----------3------------|-3-----------3-----------|
E|-------------------------|-------------------------|--------------------------|-------------------------|

   A chord diagramFF                         F(b5)                     A chord diagramCmaj7Cmaj7
e|-------------------------|-------------------------|-------0-----------0-----|-------0-----------------|
B|-1-----1-----1-----1-----|-0-----0-----0-----------|-0-----------0-----------|-0-----------0-----------|
G|-----2-----2-----2-----2-|-----2-----2-------------|-----0-----0-----0-----0-|-----0-----0-------------|
D|---3-----3-----3-----3---|---3-----3---------------|---2-----2-----2-----2---|---2-----2---------------|
A|-------------------------|-------------------------|-3-----------3-----------|-3-----------3-----------|
E|-1-----------1-----------|-1-----------1-----------|-------------------------|-------------------------|

 A chord diagramFF               Fadd#11
Baby, won't you take it back?
     A chord diagramFF               A chord diagramF6F6
Say you were tryna make me laugh
     A chord diagramG MajorG                A chord diagramG6G6
And nothing has to change today
      A chord diagramG7G7            A chord diagramG MajorG          A chord diagramA minorAm   A chord diagramAsus2Asus2
You didn' t mean to say "I love you"
        A chord diagramC majorC   A chord diagramCmaj7Cmaj7                A chord diagramFF    F(b5)   A chord diagramCmaj7Cmaj7
I love you        and I don't want to,      ooh


Bridge:
   A chord diagramDmDm                           A chord diagramE minorEm
e|-1-----1------1------1------|-0-----0------0------0------|
B|-----3------3------3------3-|-----0------0------0-----0--|
G|---2------2------2------2---|---0------0------0-----0----|
D|-0------------0-------------|----------------------------|
A|----------------------------|----------------------------|
E|----------------------------|-0------------0-------------|

   A chord diagramFmaj7Fmaj7                        Fmaj7b5
e|-------0-------------0------|-------0--------------------|
B|-1-------------1------------|-0-------------0------------|
G|-----2------2------2------2-|-----2------2---------------|
D|---3------3------3------3---|---3------3-----------------|
A|----------------------------|----------------------------|
E|-1-------------1------------|-1-------------1------------|

     A chord diagramDmDm
The smile that you gave me
  A chord diagramE minorEm                       A chord diagramFmaj7Fmaj7 Fmaj7b5
Even when you felt like dying


Outro:

   A chord diagramFF             Fadd#11         A chord diagramFF             A chord diagramF6F6
e|-----------------------------|-----------------------------|
B|---------------0-------------|-1-------------3-------------|
G|-2---------------------------|-----------------------------|
D|-----------------------------|-----------------------------|
A|-----------------------------|-----------------------------|
E|-1-------------1-------------|-1-------------1-------------|

   A chord diagramG MajorG             A chord diagramG6G6              A chord diagramG7G7            A chord diagramG MajorG
e|---------------0------0------|-1------1------3------3------|
B|-3------3--------------------|-----------------------------|
G|------0------0------0------0-|------0------0------0--------|
D|----0------0------0------0---|----0------0------0----------|
A|-----------------------------|-----------------------------|
E|-3------3------3------3------|-3------3------3------3------|

   A chord diagramA minorAm                        A chord diagramAsus2Asus2                     A chord diagramC majorC                         A chord diagramCmaj7Cmaj7
e|-------------------------|-------------------------|-------------------------|-------------------------|
B|-1-----------------------|-0-----------------------|-1------------------1h3--|-0-----------------------|
G|-2---------------------2-|-------------------------|-0---------------0-------|-------------------------|
D|---------------------2---|-------------------------|---------------2---------|-------------------------|
A|-0-----------------------|-------------------------|-3-----------------------|-------------------------|
E|-------------------------|-------------------------|-------------------------|-------------------------|

   A chord diagramFF                         F(b5)      Fmaj7b5        A chord diagramCmaj7Cmaj7
e|-------------------------|------------0------------|-------0-----------0-----|-------0-----------0-----|
B|-1-----------------------|-0-----------------------|-0-----------0-----------|-0-----------0-----------|
G|-2---------------------2-|-------------------------|-----0-----0-----0-----0-|-----0-----0-----0-----0-|
D|---------------------3---|-------------------------|---2-----2-----2-----2---|---2-----2-----2-----2---|
A|-------------------------|-------------------------|-3-----------3-----------|-3-----------3-----------|
E|-1-----------------------|-------------------------|-------------------------|-------------------------|

   Fmaj7b5
e|-------0-------------0------|-------0-------------0------|
B|-0-------------0------------|-0-------------0------------|
G|-----2------2------2------2-|-----2------2------2------2-|
D|---3------3------3------3---|---3------3------3------3---|
A|----------------------------|----------------------------|
E|-1-------------1------------|-1-------------1------------|

   A chord diagramCmaj7Cmaj7                                                     F(b5)
e|-------0-------------0------|-------0-------------0------|---------|
B|-0-------------0------------|-0-------------0------------|-0-------|
G|-----0------0------0------0-|-----0------0------0------0-|-2-------|
D|---2------2------2------2---|---2------2------2------2---|---------|
A|-3-------------3------------|-3-------------3------------|---------|
E|----------------------------|----------------------------|-1-------|

   A chord diagramFF             Fadd#11
We fall apart as it gets dark
    A chord diagramFF               A chord diagramF6F6
I'm in your arms in Central Park
        A chord diagramG MajorG                 A chord diagramG6G6
There's nothing you could do or say
   A chord diagramG7G7               A chord diagramG MajorG           A chord diagramA minorAm   A chord diagramAsus2Asus2
I can' ?t escape the way, I love you
             A chord diagramC majorC   A chord diagramCmaj7Cmaj7             A chord diagramFF   F(b5)   A chord diagramCmaj7Cmaj7
I don't want to,       but I love you,       ooh
Fmaj7b5      A chord diagramCmaj7Cmaj7
Ooh,          ooh
  F(b5)       N.C.
Ooh,          ooh

Other versions of I Love You

I love youChords
I love you (Ver. 2)Chords
I love you ukuleleChords
I love you ukulele (Ver. 2)Chords
I love youTabs
I love you - introTabs

↓ Add and view comments below ↓

What do you think about this song and these tabs?

Add your comments, questions, rant or a thumbs up below.

Almost there ...

Sign in to get your own page with links to favourite songs and more. You are just one click away...

Login with Facebook Login with Google