GuitarTabsExplorer icon
GuitarTabsExplorer icon

Log in

Video

Songbook

  • Log in to add and see bookmarks

Last visited songs

    No songs visited yet...

Halleys Comet by Billie Eilish

Halleys Comet bass tab by Billie Eilish

Bass tabs

  • Difficulty: Intermediate
Key: B

ğŸŽ¸ Intro:

   B  D#7 G#m7      E  B  F#    E  D#7 G#m7 C#  C#m  Em  B
G|----8----6----11------------9----8----11--------9----6----11---10-----9-----9-----8--------|
D|----9----5----9-----11p9----6----9----8---------6----5----9----11-----11----9-----9--------|
A|----9----6----11------------7----9----9---------7----6----11---11-----11----10----9--------|
E|-------------------------------------------------------------------------------------------|

(verses 1 and 2 are repeats of the intro)


ğŸŽ¸ Verse 1:
 "I don't"
   B  D#7 G#m7      E  B  F#    E  D#7 G#m7 C#  C#m  Em  B
G|----8----6----11------------9----8----11--------9----6----11---10-----9-----9-----8--------|
D|----9----5----9-----11p9----6----9----8---------6----5----9----11-----11----9-----9--------|
A|----9----6----11------------7----9----9---------7----6----11---11-----11----10----9--------|
E|-------------------------------------------------------------------------------------------|

ğŸŽ¸ Verse 2:
"Halley's"
   B  D#7 G#m7      E  B  F#    E  D#7 G#m7 C#  C#m  Em  B
G|----8----6----11------------9----8----11--------9----6----11---10-----9-----9-----8--------|
D|----9----5----9-----11p9----6----9----8---------6----5----9----11-----11----9-----9--------|
A|----9----6----11------------7----9----9---------7----6----11---11-----11----10----9--------|
E|-------------------------------------------------------------------------------------------|
ğŸŽ¸ Bridge:
  "haven't"
   B    D#7    E  B  F#
G|----8--------6--------9----8----11--------|
D|----9--------5--------7----9----8---------|
A|----9--------6--------6----9----9---------|
E|------------------------------------------|

 "sleepless"
   B    D#7    E  B  F#
G|----8--------6--------9----8----11--------|
D|----9--------5--------7----9----8---------|
A|----9--------6--------6----9----9---------|
E|------------------------------------------|

 "good at"
   E  D#7 G#m7 C#  C#m  Em  B
G|----9----6----11---10-----9-----9-----8--------|
D|----7----5----9----11-----11----9-----9--------|
A|----6----6----11---11-----11----10----9--------|
E|-----------------------------------------------|

(the end of the bridge is the same as the second half of the intro)
ğŸŽ¸ Interlude:                   "loved"
   B  D#7 G#m7      E  B  F#    E  D#7 G#m7 C#  C#m  Em  B
G|----8----6----11------------9----8----11--------9----6----11---10-----9-----9-----8--------|
D|----9----5----9-----11p9----6----9----8---------6----5----9----11-----11----9-----9--------|
A|----9----6----11------------7----9----9---------7----6----11---11-----11----10----9--------|
E|-------------------------------------------------------------------------------------------|

      "for you"
   E  Em  B
G|----9----9----8----|
D|----6----9----9----|
A|----7----10---9----|
E|-------------------|


ğŸŽ¸ Outro:
   Bm    E7    A*   F#m7
G|----7--------7--------6--------9--------|
D|----9--------6--------7--------7--------|
A|----9--------7--------7--------9--------|
E|----------------------------------------|

repeat those 4 chords for the whole outro, ending and fading out on A

*A can also be played as Amaj7, tabbed as x-12-11-13, for a more emotional sound,
at the cost of having to shift positions a bit more.


🏷Legend
***********************************

| P  Pull-off

***********************************

[ Privacy | About us ]

Welcome to the guitar community

Why join and log in?
- Get songbook with favourite songs
- Get custom made front page
- Submit chords and tabs
- Submit guitar-cover videos
- Get a lot of thumbs up for your work

Songbook

Last visited songs

Site
Home
Search
Community
Submit chords
Submit video

Search tabs and chords

Browse by artist

A B C D E F G H I J K L M N O P Q R S T U V W X Y Z #


Menu

Search

Video

Bookmark

Login