Log in

One click and you are in

Login with Facebook Login with Google

Why sign up and log in

Guitar Tabs Explorer
Billie Eilish guitar tabs for Everything i wanted acoustic

Guitar tabs with lyrics

Tuning: Standard (E A D G B E)

Key: A chord diagramA majorA

Difficulty: Advanced

Key: A chord diagramA majorA
Time 4/4
Intro:

   Dmaj7/F#       A chord diagramEsus4Esus4      A chord diagramC# minorC#m          A chord diagramDmaj7Dmaj7
e|-----------------------|---------------------------------------------|
B|----2-------------0----|------------------2-----------0----2----3----|
G|----2------2------2----|----6-------------2------2-------------------|
D|----0-------------2----|----6------6------0--------------------------|
A|------------------2----|----4----------------------------------------|
E|----2------------------|---------------------------------------------|

    A chord diagramDmaj7Dmaj7           A chord diagramE MajorE        A chord diagramC# minorC#m           A chord diagramF# minorF#m
e|-----------------------|---------------------------------------------|
B|----2-------------0----|---------------------------------------------|
G|----2------2------1----|-----------6------2--------------------------|
D|----0-------------2----|----6-------------4--------------------------|
A|-----------------------|----4----------------------------------------|
E|------------------0----|------------------2--------------------------|


Verse 1:

   Dmaj7/F#       A chord diagramEsus4Esus4      A chord diagramC# minorC#m          A chord diagramDmaj7Dmaj7
e|-----------------------|---------------------------------------------|
B|----2-------------0----|------------------2-----------0----2----3----|
G|----2------2------2----|----6-------------2------2-------------------|
D|----0-------------2----|----6------6------0--------------------------|
A|------------------2----|----4----------------------------------------|
E|----2------------------|---------------------------------------------|
           I had a dream           I got everything I wanted

    A chord diagramDmaj7Dmaj7           A chord diagramE MajorE        A chord diagramC# minorC#m           A chord diagramF# minorF#m
e|-----------------------|---------------------------------------------|
B|----2-------------0----|---------------------------------------------|
G|----2------2------1----|-----------6------2--------------------------|
D|----0-------------2----|----6-------------4--------------------------|
A|-----------------------|----4----------------------------------------|
E|------------------0----|------------------2--------------------------|
     Not what you think and if I'm being honest it might have been a

   Dmaj7/F#       A chord diagramEsus4Esus4      A chord diagramC# minorC#m          A chord diagramDmaj7Dmaj7
e|-----------------------|---------------------------------------------|
B|----2-------------0----|------------------2-----------0----2----3----|
G|----2------2------2----|----6-------------2------2-------------------|
D|----0-------------2----|----6------6------0--------------------------|
A|------------------2----|----4----------------------------------------|
E|----2------------------|---------------------------------------------|
     Nightmare              To anyone who might care

    A chord diagramDmaj7Dmaj7           A chord diagramE MajorE        A chord diagramC# minorC#m           A chord diagramF# minorF#m
e|-----------------------|---------------------------------------------|
B|----2-------------0----|------------------------------0----2----3----|
G|----2------2------1----|-----------6------2------2-------------------|
D|----0-------------2----|----6-------------4--------------------------|
A|-----------------------|----4----------------------------------------|
E|------------------0----|------------------2--------------------------|
  Thought I could fly (fly)  So I stepped off the Golden

   Dmaj7/F#       A chord diagramEsus4Esus4      A chord diagramC# minorC#m          A chord diagramDmaj7Dmaj7
e|-----------------------|---------------------------------------------|
B|----2-------------0----|------------------2--------------------------|
G|----2------2------2----|----6-------------2--------------------------|
D|----0-------------2----|----6------6------0--------------------------|
A|------------------2----|----4----------------------------------------|
E|----2------------------|---------------------------------------------|
            Nobody cried        Nobody even noticed I saw them standing

    A chord diagramDmaj7Dmaj7           A chord diagramE MajorE        A chord diagramC# minorC#m           A chord diagramF# minorF#m
e|-----------------------|---------------------------------------------|
B|----2-------------0----|------------------------------0----2----3----|
G|----2------2------1----|----6-------------2------2-------------------|
D|----0-------------2----|----6------6------4--------------------------|
A|-----------------------|----4----------------------------------------|
E|------------------0----|------------------2--------------------------|
     Right there             Kinda thought they might care

Pre-Chorus:

    Dmaj7/F#        A chord diagramE MajorE        A chord diagramC# minorC#m           A chord diagramF# minorF#m
e|-----------------------|---------------------------------------------|
B|----2-------------0----|------------------------------0----2----3----|
G|----2------2------1----|----6-------------2------2-------------------|
D|----0-------------2----|----6------6------4--------------------------|
A|-----------------------|----4----------------------------------------|
E|----2-------------0----|------------------2--------------------------|
            I had a dream           I got everything I wanted

   Dmaj7/F#       A chord diagramEsus4Esus4      A chord diagramC# minorC#m          A chord diagramDmaj7Dmaj7
e|-----------------------|---------------------------------------------|
B|----2-------------0----|---------------------------------------------|
G|----2------2------2----|------------6-----2--------------------------|
D|----0-------------2----|----6-------------4--------------------------|
A|------------------2----|----4----------------------------------------|
E|-----------------------|------------------2--------------------------|
But a'when I wake up I see   You're  with   me    when you say


Chorus:

    A chord diagramDmaj7Dmaj7         A chord diagramEsus4Esus4         A chord diagramC# minorC#m           A chord diagramF# minorF#m
e|--------------------------|---------------------------------------------|
B|----2-------------0---0---|----------------------------0----2----3------|
G|----2------2------2---2---|------------6-----2----2---------------------|
D|----0-------------2-------|----6-------------4--------------------------|
A|------------------2-------|----4----------------------------------------|
E|--------------------------|------------------2--------------------------|
   As long as I'm here        No one can hurt you

    Dmaj7/F#        A chord diagramE MajorE            A chord diagramC# minorC#m           A chord diagramF# minorF#m
e|---------------------------|---------------------------------------------|
B|----2-------------0---0----|---------------------------------------------|
G|----2------2------1---1----|----6-------------2------2-------------------|
D|----0-------------2---2----|----6------6------4------4----4--------------|
A|---------------------------|----4--------------------4---------4---------|
E|----2-------------0--------|------------------2--------------------------|
   Don't wanna lie here      But you can learn to

   Dmaj7/F#       A chord diagramEsus4Esus4      A chord diagramC#7C#7               A chord diagramF# minorF#m
e|-----------------------|----------------------------------------------------|
B|----2-------------0----|-------------------------------------0----2----3----|
G|----2------2------2----|----4-----------------2---------2-------------------|
D|----0-------------2----|----6-----6-----------4----4------------------------|
A|------------------2----|----4----------4------------------------------------|
E|-----------------------|----------------------2-----------------------------|
     If I could change     The way that you see yourself

   Dmaj7/F#        A chord diagramE MajorE        A chord diagramC# minorC#m           A chord diagramF# minorF#m
e|---------------------------|---------------------------------------------|
B|----2-------------0---0----|---------------------------------------------|
G|----2------2------1---1----|----6-------------2--------------------------|
D|----0-------------2---2----|----6------6------4---------4----------------|
A|---------------------------|----4-----------------------4----------------|
E|----2-------------0--------|------------------2---------2----------------|
  You wouldn't wonder why here    They don't deserve you


Verse 2:

    A chord diagramDmaj7Dmaj7           A chord diagramE MajorE                               A chord diagramC# minorC#m        A chord diagramDmaj7Dmaj7
e|----2------5------7----|----------------------------------------------|
B|----2------2------9----|----------9----9----10----12----10----7-------|
G|----2-------------9----|-----9--------------------9-----------6-------|
D|----0------------------|----------------------------------------------|
A|------------------7----|--------------------------------------5-------|
E|-----------------------|--------------------------9-------------------|
       I tried to scream      But my head was under water

     A chord diagramDmaj7Dmaj7          A chord diagramE MajorE      A chord diagramEsus4Esus4   A chord diagramE MajorE        A chord diagramC# minorC#m           A chord diagramDmaj7Dmaj7
e|-----------5------7-------------------|-----------9---------------------------------|
B|----7------7------9--------10----9----|----9-------------7--------------------------|
G|----6-------------9--------9-----9----|----9-------------6--------------------------|
D|--------------------------------------|---------------------------------------------|
A|----5-------------7-------------------|------------------5--------------------------|
E|--------------------------------------|----9----------------------------------------|
    They called me weak    Like I'm not just somebody's daughter   It could've been a


   Dmaj7/F#       A chord diagramEsus4Esus4     A chord diagramE MajorE        A chord diagramC# minorC#m          A chord diagramDmaj7Dmaj7
e|-------------------------------|----------------------------------------------------|
B|----2-------------0------------|-------------------------------------0----2----3----|
G|----2------2------2-------1----|----6-------------2-------------2-------------------|
D|----0-------------2---2---2----|----6------6------4---2----0------------------------|
A|------------------2------------|----4-----------------------------------------------|
E|----2---------------------0----|------------------2---------------------------------|
     Nightmare                       But it felt like they were right there

  Dmaj7/F#        A chord diagramE MajorE                   A chord diagramC# minorC#m           A chord diagramF# minorF#m
e|--------------------------------|--------------------------------------------------|
B|----2-------------0---0---------|-----------------------------------0----2----3----|
G|----2------2------1---1---------|----6-------------2-----------2-------------------|
D|----0-------------2---2----2----|----6------6------4------4------------------------|
A|--------------------------------|----4--------------------4------------------------|
E|----2-------------0---0---------|------------------2-------------------------------|
   And it feels like yesterday was a year ago   But I don't want to let them know

    A chord diagramDmaj7Dmaj7           A chord diagramE MajorE             A chord diagramC# minorC#m               A chord diagramF# minorF#m
e|----------------------------|----------------------------------------------------|
B|----2-------------0----0----|----------------------------------------------------|
G|----2------2------1----1----|----------6-----------2---------2-------------------|
D|----0-------------2----2----|----6-----------------4----4------------------------|
A|----------------------------|----4-----------------------------------------------|
E|------------------0---------|----------------------2-----------------------------|
   Cause everybody wants something from me now  And I don't wanna let them down


Pre-Chorus:

     A chord diagramDmaj7Dmaj7          A chord diagramE MajorE                       A chord diagramC# minorC#m           A chord diagramDmaj7Dmaj7
e|-----------5------7-------------------|----9-------------5----------------------9----10----|
B|----7------7------9--------10----12---|----9------9------7----------10----12---------------|
G|----6-------------9-------------------|----9-------------6---------------------------------|
D|--------------------------------------|----------------------------------------------------|
A|----5-------------7-------------------|------------------5---------------------------------|
E|--------------------------------------|----9-----------------------------------------------|
             I had a dream                   I got everything I wanted

     A chord diagramDmaj7Dmaj7       A chord diagramE MajorE                             A chord diagramC# minorC#m       A chord diagramDmaj7Dmaj7
e|----10----5----7-------------------------|---------9----------------------|
B|----7-----7----9--------------9----10----|----9---------7-----------------|
G|----6-----6----9---------9---------------|----9---------6-----------------|
D|-----------------------------------------|------------------=-------------|
A|----5----------7----7--------------------|--------------5-----------------|
E|-----------------------------------------|----9---------------------------|
      But a'when I wake up I see                You  with  me  When you say


Chorus:

    A chord diagramDmaj7Dmaj7         A chord diagramEsus4Esus4         A chord diagramC# minorC#m           A chord diagramF# minorF#m
e|--------------------------|----------------------------------------------|
B|----2-------------0---0---|-----------------------5----------------------|
G|----2------2------2---2---|------------6-----2----2----2-----------------|
D|----0-------------2-------|----6-------------4--------------4------------|
A|------------------2-------|----4-----------------------------------------|
E|--------------------------|------------------2----2----------------------|
   As long as I'm here        No one can hurt you

    Dmaj7/F#        A chord diagramE MajorE            A chord diagramC# minorC#m           A chord diagramF# minorF#m
e|---------------------------|----------------------------------------------|
B|----2-------------0---0----|-------------------------5--------------------|
G|----2------2------1---1----|----6-------------2------2----2---------------|
D|----0-------------2---2----|----6------6------4----------------4----------|
A|---------------------------|----4-----------------------------------------|
E|----2-------------0--------|------------------2------2--------------------|
   Don't wanna lie here      But you can learn to

   Dmaj7/F#       A chord diagramEsus4Esus4      A chord diagramC#7C#7               A chord diagramF# minorF#m
e|-----------------------|----------------------------------------------------|
B|----2-------------0----|----------------------------------------------------|
G|----2------2------2----|----4-----------------2-----------------------------|
D|----0-------------2----|----6-----6-----------4----4------------------------|
A|------------------2----|----4----------4------------------------------------|
E|-----------------------|----------------------2-----------------------------|
     If I could change     The way that you see yourself

   Dmaj7/F#        A chord diagramE MajorE        A chord diagramC# minorC#m           A chord diagramF# minorF#m
e|---------------------------|---------------------------------------------|
B|----2-------------0---0----|---------------------------------------------|
G|----2------2------1---1----|----6-------------2--------------------------|
D|----0-------------2---2----|----6------6------4---------4----------------|
A|---------------------------|----4-----------------------4----------------|
E|----2-------------0--------|------------------2---------2----------------|
  You wouldn't wonder why here    They don't deserve you


Bridge:
     A chord diagramF# minorF#m                    A chord diagramE MajorE                    A chord diagramC# minorC#m    A chord diagramF# minorF#m
e|---------------------------------------------|---------------------------------|
B|--------------------------0------------------|----------------5----------------|
G|-------------------2------1---------1--------|--6------2------2----2-----------|
D|----4---------4-----------2----2---------2---|--6------4----------------4------|
A|----4----4-----------------------------------|--4------------------------------|
E|----2---------------------0------------------|---------2------2----------------|
    If I knew it all then    would I do it again,     would I do it again

     A chord diagramF# minorF#m                    A chord diagramE MajorE                    A chord diagramC# minorC#m    A chord diagramF# minorF#m
e|---------------------------------------------|---------------------------------|
B|--------------------------0------------------|----------------2----------------|
G|-------------------2------1---------1--------|--6------2----------2------------|
D|----4---------4-----------2----2---------2---|--6------4----------------4------|
A|----4----4-----------------------------------|--4------------------------------|
E|----2---------------------0------------------|---------2-----------------------|
    If they knew what they said would go straight to my head, what would they say instead


     A chord diagramDmaj7Dmaj7          A chord diagramE MajorE                       A chord diagramC# minorC#m           A chord diagramDmaj7Dmaj7
e|-----------5------7-------------------|----9-------------5----------------------9----10----|
B|----7------7------9--------10----12---|----9------9------7----------10----12---------------|
G|----6-------------9-------------------|----9-------------6---------------------------------|
D|--------------------------------------|----------------------------------------------------|
A|----5-------------7-------------------|------------------5---------------------------------|
E|--------------------------------------|----9-----------------------------------------------|
              If I knew it all then would I do it again, would I do it again

     A chord diagramDmaj7Dmaj7       A chord diagramE MajorE                             A chord diagramC# minorC#m       A chord diagramDmaj7Dmaj7
e|----10----5----7-------------------------|---------9----------------------|
B|----7-----7----9--------------9----10----|----9---------7-----------------|
G|----6-----6----9---------9---------------|----9---------6-----------------|
D|-----------------------------------------|------------------=-------------|
A|----5----------7----7--------------------|--------------5-----------------|
E|-----------------------------------------|----9---------------------------|
   If they knew what they said would go straight to my head, what would they say instead


Outro:
     A chord diagramDmaj7Dmaj7           A chord diagramE MajorE     A chord diagramC# minorC#m             A chord diagramDmaj7Dmaj7
e|-------------------7--------------------------------------------------|
B|----7----5---7-----9------------10---------7--------------------------|
G|----6--------------9------9-----------9----6--------------------------|
D|--------------------------11------------------------------------------|
A|----5--------------7-----------------------5--------------------------|
E|--------------------------9-------------------------------------------|

Other versions of Everything I Wanted Acoustic

Everything I wantedChords
Everything I wanted (Ver. 2)Chords
Everything I wanted (Ver. 3)Chords
Everything I wanted ukuleleChords
Everything I wanted (Ver. 2)Tabs
Everything I wanted - introTabs
Everything I wanted acoustic (Ver. 2)Tabs

↓ Add and view comments below ↓

What do you think about this song and these tabs?

Add your comments, questions, rant or a thumbs up below.

Almost there ...

Sign in to get your own page with links to favourite songs and more. You are just one click away...

Login with Facebook Login with Google