Search tabs and chords

Search for song, artist or band

Log in

One click and you are in

Login with Facebook Login with Google

Why sign up and log in

Guitar Tabs Explorer
Billie Eilish guitar tabs for Come out and play

Guitar tabs with lyrics

Tuning: Standard (E chord diagramEE A chord diagramAA D chord diagramDD G chord diagramGG B chord diagramBB E chord diagramEE)

Key: E chord diagramEE

Difficulty: Novice

Intro:
  C chord diagramCC                      F chord diagramFF
E|----------------------|-----------------------|
B|---1--1p0-------1--1p0|---1--1p0-------1--1p0-|
G|---------0-0----------|---------2-2-----------|
D|-2---2----2---2---2---|-3---3----3---3---3----|
A|3-3-3--------3-3-3----|3-3-3--------3-3-3-----|
E|----------------------|-----------------------|
Verse:
  C chord diagramCC                      F chord diagramFF
E|----------------------|-----------------------|
B|---1--1p0-------1--1p0|---1--1p0-------1--1p0-|
G|---------0-0----------|---------2-2-----------|
D|-2---2----2---2---2---|-3---3----3---3---3----|
A|3-3-3--------3-3-3----|3-3-3--------3-3-3-----|
E|----------------------|-----------------------|

     C chord diagramCC
Wake up and smell the coffee

Is your cup half full or empty?
        F chord diagramFF
When we talk, you say it softly

But I love it when you’re awfully quiet, quiet


Riff:
  C chord diagramCC                      F chord diagramFF
E|----------------------|-----------------------|
B|---1--1p0-------1--1p0|---1--1p0-------1--1p0-|
G|---------0-0----------|---------2-2-----------|
D|-2---2----2---2---2---|-3---3----3---3---3----|
A|3-3-3--------3-3-3----|3-3-3--------3-3-3-----|
E|----------------------|-----------------------|

Verse:
  C chord diagramCC                      F chord diagramFF
E|----------------------|-----------------------|
B|---1--1p0-------1--1p0|---1--1p0-------1--1p0-|
G|---------0-0----------|---------2-2-----------|
D|-2---2----2---2---2---|-3---3----3---3---3----|
A|3-3-3--------3-3-3----|3-3-3--------3-3-3-----|
E|----------------------|-----------------------|

  C chord diagramCC                      F chord diagramFF
E|----------------------|-----------------------|
B|---1--1p0-------1--1p0|---1--1p0-------1--1p0-|
G|---------0-0----------|---------2-2-----------|
D|-2---2----2---2---2---|-3---3----3---3---3----|
A|3-3-3--------3-3-3----|3-3-3--------3-3-3-----|
E|----------------------|-----------------------|

    C chord diagramCC
You see a piece of paper

Could it be a little greater
     F chord diagramFF
Show me what you could make her

You’ll never know until you try it

You don’t have to keep it quiet


Chorus:
  Dm chord diagramDmDm    G chord diagramGG       C chord diagramCC    Em chord diagramEmEm   Am chord diagramAmAm
E|-1----3-----|-------------------|
G|-3----3-----|-1---------1-------|
G|-2----------|-----------2-------|
D|------------|-2----2----2-------|
A|------2-----|-3----2------------|
E|------3-----|-------------------|

  Dm chord diagramDmDm    G chord diagramGG       C chord diagramCC Em chord diagramEmEm F chord diagramFF G chord diagramGG C chord diagramCC Em chord diagramEmEm F chord diagramFF
E|-1----3-----|------1-3------1---|
B|-3----3-----|-1----1-3-1----1---|
G|-2----------|------2--------2---|
D|------------|-2-2--3---2-2--3---|
A|------2-----|-3-2--3-2-3-2--3---|
E|------3-----|------1-3------1---|

  C chord diagramCC  G chord diagramGG F chord diagramFF G chord diagramGG      Em chord diagramEmEm  Am chord diagramAmAm F chord diagramFF     C chord diagramCC
E|---3-1-3----|--------1----------|
B|-1-3-1-3----|-----1--1-----1----|
G|-----2------|-----2--2----------|
D|-2---3------|-2---2--3-----2----|
A|-3-2-3-2----|-2------3-----3----|
E|---3-1-3----|--------1----------|

      Dm chord diagramDmDm                G chord diagramGG
And I know it makes you nervous
      C chord diagramCC       Em chord diagramEmEm        Am chord diagramAmAm
But I promise you, it’s worth it
   Dm chord diagramDmDm                             G chord diagramGG
To show ‘em everything you kept inside
      C chord diagramCC Em chord diagramEmEm F chord diagramFF G chord diagramGG       C chord diagramCC Em chord diagramEmEm F chord diagramFF G chord diagramGG
Don‘t hide,    don’t hide
    C chord diagramCC      G chord diagramGG          F chord diagramFF        G chord diagramGG
Too shy to say, but I hope you stay
      Em chord diagramEmEm Am chord diagramAmAm   F chord diagramFF
Don’t hide   away
             C chord diagramCC
Come out and play


Riff:
  C chord diagramCC
E|------------|----------|
B|---1--1p0---|---1--1p0-|
G|---------0-0|----------|
D|-2---2----2-|-2---2----|
A|3-3-3-------|3-3-3-----|
E|------------|----------|


Verse:
  C chord diagramCC                      F chord diagramFF
E|----------------------|-----------------------|
B|---1--1p0-------1--1p0|---1--1p0-------1--1p0-|
G|---------0-0----------|---------2-2-----------|
D|-2---2----2---2---2---|-3---3----3---3---3----|
A|3-3-3--------3-3-3----|3-3-3--------3-3-3-----|
E|----------------------|-----------------------|

  C chord diagramCC                      F chord diagramFF
E|----------------------|-----------------------|
B|---1--1p0-------1--1p0|---1--1p0-------1--1p0-|
G|---------0-0----------|---------2-2-----------|
D|-2---2----2---2---2---|-3---3----3---3---3----|
A|3-3-3--------3-3-3----|3-3-3--------3-3-3-----|
E|----------------------|-----------------------|

     C chord diagramCC
Look up, out of your window

See snow, won’t let it in though
      F chord diagramFF
Leave home, feel the wind blow
                                          C chord diagramCC
‘Cause it’s colder here inside in silence
                                F chord diagramFF
You don’t have to keep it quiet


Chorus:
  Dm chord diagramDmDm    G chord diagramGG       C chord diagramCC    Em chord diagramEmEm   Am chord diagramAmAm
E|-1----3-----|-------------------|
G|-3----3-----|-1---------1-------|
G|-2----------|-----------2-------|
D|------------|-2----2----2-------|
A|------2-----|-3----2------------|
E|------3-----|-------------------|

  Dm chord diagramDmDm    G chord diagramGG       C chord diagramCC Em chord diagramEmEm F chord diagramFF G chord diagramGG C chord diagramCC Em chord diagramEmEm F chord diagramFF
E|-1----3-----|------1-3------1---|
B|-3----3-----|-1----1-3-1----1---|
G|-2----------|------2--------2---|
D|------------|-2-2--3---2-2--3---|
A|------2-----|-3-2--3-2-3-2--3---|
E|------3-----|------1-3------1---|

  C chord diagramCC  G chord diagramGG F chord diagramFF G chord diagramGG      Em chord diagramEmEm  Am chord diagramAmAm F chord diagramFF     C chord diagramCC
E|---3-1-3----|--------1----------|
B|-1-3-1-3----|-----1--1-----1----|
G|-----2------|-----2--2----------|
D|-2---3------|-2---2--3-----2----|
A|-3-2-3-2----|-2------3-----3----|
E|---3-1-3----|--------1----------|

F chord diagramFF       Dm chord diagramDmDm                G chord diagramGG
Yeah, I know it makes you nervous
      C chord diagramCC       Em chord diagramEmEm        Am chord diagramAmAm
But I promise you, it’s worth it
   Dm chord diagramDmDm                             G chord diagramGG
To show ‘em everything you kept inside
     *C Em chord diagramEmEm F chord diagramFF G chord diagramGG       C chord diagramCC Em chord diagramEmEm F chord diagramFF G chord diagramGG
Don‘t hide,    don’t hide
   *C      G chord diagramGG          F chord diagramFF        G chord diagramGG
Too shy to say, but I hope you stay
     *Em Am chord diagramAmAm   F chord diagramFF
Don’t hide   away
             C chord diagramCC
Come out and play


Outro:
  C chord diagramCC
E|------------|----------|
B|---1--1p0---|---1--1---|
G|---------0-0|----------|
D|-2---2----2-|-2---2----|
A|3-3-3-------|3-3-3-----|
E|------------|----------|



************************************

| *   Single Stroke
| p   Pull-off

************************************

Other versions of Come Out And Play

Come out and playChords
Come out and play (Ver. 2)Chords
Come out and play ukuleleChords
Come out and play ukulele (Ver. 2)Chords
Come out and play (Ver. 2)Tabs
Come out and play (Ver. 3)Tabs
Come out and play - introTabs

Almost there ...

Sign in to get your own page with links to favourite songs and more. You are just one click away...

Login with Facebook Login with Google