Search tabs and chords

Search for song, artist or band

Log in

One click and you are in

Login with Facebook Login with Google

Why sign up and log in

Guitar Tabs Explorer
Billie Eilish guitar tabs for Come out and play

Intro

Tuning: Standard (E chord diagramEE A chord diagramAA D chord diagramDD G chord diagramGG B chord diagramBB E chord diagramEE)

Key: C chord diagramCC

Difficulty: Novice

Play the F chord diagramFF chord this way:
E chord diagramEE-A chord diagramAA-D chord diagramDD-G chord diagramGG-B chord diagramBB-e
1-x-3-2-1-x

I use my thumb to press down the E chord diagramEE-string on the first fret.
   C chord diagramCC               Cmaj7 chord diagramCmaj7Cmaj7             C chord diagramCC               Cmaj7 chord diagramCmaj7Cmaj7
e|---------------------------------|---------------------------------|
B|-------1-------1p0---------------|-------1-------1p0---------------|
G|-----0-------0-------0-------0---|-----0-------0-------------------|
D|---2-------2-------------2-------|---2-------2---------------------|
A|-3-------------------------------|-3-------------------------------|
E|---------------------------------|---------------------------------|

   F chord diagramFF               F chord diagramFF(b5)             F chord diagramFF               F chord diagramFF(b5)
e|---------------------------------|---------------------------------|
B|-------1-------1p0---------------|-------1-------1p0---------------|
G|-----2-------2-------2-------2---|-----2-------2-------------------|
D|---3-------3-------------3-------|---3-------3---------------------|
A|---------------------------------|---------------------------------|
E|-1-------------------------------|-1-------------------------------|


********************

| p  pull-off

********************

Other versions of Come Out And Play

Come out and playChords
Come out and play (Ver. 2)Chords
Come out and play ukuleleChords
Come out and play ukulele (Ver. 2)Chords
Come out and playTabs
Come out and play (Ver. 2)Tabs
Come out and play (Ver. 3)Tabs

Almost there ...

Sign in to get your own page with links to favourite songs and more. You are just one click away...

Login with Facebook Login with Google