Search tabs and chords

Search for song, artist or band

Log in

One click and you are in

Login with Facebook Login with Google

Why sign up and log in

Guitar Tabs Explorer
Billie Eilish guitar tabs for Come out and play (Ver. 3)

Guitar tabs with lyrics

Tuning: Standard (E chord diagramEE A chord diagramAA D chord diagramDD G chord diagramGG B chord diagramBB E chord diagramEE)

Key: C chord diagramCC

Difficulty: Intermediate

Intro:
       (C chord diagramCC)                    (C chord diagramCC)                (F chord diagramFF)                       (F chord diagramFF)
e|-----------------------------------------------------------------------------------------------|
B|--------1------1^0---------------1------1^0-----------1------1^0----------------1-----1^0------|
G|------0------0-----0---0------0-------0-------------2------2-----2----2-------2-----2----------|
D|----2------2---------2------2-------2-------------3------3----------3-------3-----3------------|
A|--3----------------------3---------------------------------------------------------------------|
E|-----------------------------------------------1-------------------------1---------------------|

Verse:
 wake up & smell the coffee                    when we talk you say it softly
 is your cup half full or empty                but i love it when you're awfully quiet
       (C chord diagramCC)                    (C chord diagramCC)                (F chord diagramFF)                       (F chord diagramFF)
e|-----------------------------------------------------------------------------------------------|
B|--------1------1^0---------------1------1^0-----------1------1^0----------------1-----1^0------|
G|------0------0-----0---0------0-------0-------------2------2-----2----2-------2-----2----------|
D|----2------2---------2------2-------2-------------3------3----------3-------3-----3------------|
A|--3----------------------3---------------------------------------------------------------------|
E|-----------------------------------------------1-------------------------1---------------------|

                    mhm               quiet                      mhm
       (C chord diagramCC)                    (C chord diagramCC)                (F chord diagramFF)                       (F chord diagramFF)
e|-----------------------------------------------------------------------------------------------|
B|--------1------1^0---------------1------1^0-----------1------1^0----------------1-----1^0------|
G|------0------0-----0---0------0-------0-------------2------2-----2----2-------2-----2----------|
D|----2------2---------2------2-------2-------------3------3----------3-------3-----3------------|
A|--3----------------------3---------------------------------------------------------------------|
E|-----------------------------------------------1-------------------------1---------------------|

 you see a piece of paper                  show me that you could make her
 could be a little greater                 you'll never know until you try it
       (C chord diagramCC)                    (C chord diagramCC)                (F chord diagramFF)                       (F chord diagramFF)
e|-----------------------------------------------------------------------------------------------|
B|--------1------1^0---------------1------1^0-----------1------1^0----------------1-----1^0------|
G|------0------0-----0---0------0-------0-------------2------2-----2----2-------2-----2----------|
D|----2------2---------2------2-------2-------------3------3----------3-------3-----3------------|
A|--3----------------------3---------------------------------------------------------------------|
E|-----------------------------------------------1-------------------------1---------------------|

                mhm              you don't have to keep it quiet
       (C chord diagramCC)                    (C chord diagramCC)                (F chord diagramFF)                       (F chord diagramFF)
e|-----------------------------------------------------------------------------------------------|
B|--------1------1^0---------------1------1^0-----------1------1^0----------------1-----1^0------|
G|------0------0-----0---0------0-------0-------------2------2-----2----2-------2-----2----------|
D|----2------2---------2------2-------2-------------3------3----------3-------3-----3------------|
A|--3----------------------3---------------------------------------------------------------------|
E|-----------------------------------------------1-------------------------1---------------------|

Pre-Chorus:
   and i know                                        but i promise you it's
   it makes you nervous
        (Dm chord diagramDmDm)                        (G chord diagramGG)                 (C chord diagramCC)            (E chord diagramEE)
e|-------1------1-----1--0----------3------0^1---------------------------------------------------|
B|-----3------3-----3-------------3---------------------------1---1------------------------------|
G|---2------2-----2-------------0---------------------------0---0---0--------1---1---------------|
D|-0------------------------------------------------------2----------------2---2-----------------|
A|------------------------------------------------------3----------------2-----------------------|
E|--------------------------3-----------3------------------------------0-------------------------|

   worth it
                            to show them everything you've kept inside

e|--------------0----------------------1-----1-----1--0----------3-----3---|
B|-------1-----------1---------------3-----3-----3-------------3-----3-----|
G|-----2-----2-----2-----2---------2-----2-----2-------------0-----0-------|
D|---2-----2-----------2---2-----0-----------------------------------------|
A|-0-----------------------------------------------------------------------|
E|-------------------------------------------------------3-----------------|

Chorus:
don't hide
don't hide
to shy to say but i hope you stay
don't hide away
come out and
play
       (C chord diagramCC)                    (C chord diagramCC)
e|--------------------------------------------|
B|--------1------1^0---------------1------1^0-|
G|------0------0-----0---0------0-------0-----|
D|----2------2---------2------2-------2-------|
A|--3----------------------3------------------|
E|--------------------------------------------|

Verse:
   look up                see snow                   leave home and         cuz it's colder here
   out of your window     won't let it in though     feel the wind blow     inside the silence
       (C chord diagramCC)                    (C chord diagramCC)                (F chord diagramFF)                       (F chord diagramFF)
e|-----------------------------------------------------------------------------------------------|
B|--------1------1^0---------------1------1^0-----------1------1^0----------------1-----1^0------|
G|------0------0-----0---0------0-------0-------------2------2-----2----2-------2-----2----------|
D|----2------2---------2------2-------2-------------3------3----------3-------3-----3------------|
A|--3----------------------3---------------------------------------------------------------------|
E|-----------------------------------------------1-------------------------1---------------------|

                                      you don't have to keep it quiet
       (C chord diagramCC)                    (C chord diagramCC)                (F chord diagramFF)                       (F chord diagramFF)
e|-----------------------------------------------------------------------------------------------|
B|--------1------1^0---------------1------1^0-----------1------1^0----------------1-----1^0------|
G|------0------0-----0---0------0-------0-------------2------2-----2----2-------2-----2----------|
D|----2------2---------2------2-------2-------------3------3----------3-------3-----3------------|
A|--3----------------------3---------------------------------------------------------------------|
E|-----------------------------------------------1-------------------------1---------------------|

Pre-Chorus:
   and i know                                        but i promise you it's
   it makes you nervous
        (Dm chord diagramDmDm)                        (G chord diagramGG)                 (C chord diagramCC)            (E chord diagramEE)
e|-------1------1-----1--0----------3------0^1---------------------------------------------------|
B|-----3------3-----3-------------3---------------------------1---1------------------------------|
G|---2------2-----2-------------0---------------------------0---0---0--------1---1---------------|
D|-0------------------------------------------------------2----------------2---2-----------------|
A|------------------------------------------------------3----------------2-----------------------|
E|--------------------------3-----------3------------------------------0-------------------------|

   worth it
                            to show them everything you've kept inside

e|--------------0----------------------1-----1-----1--0----------3-----3---|
B|-------1-----------1---------------3-----3-----3-------------3-----3-----|
G|-----2-----2-----2-----2---------2-----2-----2-------------0-----0-------|
D|---2-----2-----------2---2-----0-----------------------------------------|
A|-0-----------------------------------------------------------------------|
E|-------------------------------------------------------3-----------------|

Chorus:
don't hide
don't hide
to shy to say
but i hope you stay
don't hide away
come out and
play
       (C chord diagramCC)                    (C chord diagramCC)
e|---------------------------------------------|
B|--------1------1^0---------------1------1----|
G|------0------0-----0---0------0-------0------|
D|----2------2---------2------2-------2--------|
A|--3----------------------3-------------------|
E|---------------------------------------------|

Other versions of Come Out And Play

Come out and playChords
Come out and play (Ver. 2)Chords
Come out and play ukuleleChords
Come out and play ukulele (Ver. 2)Chords
Come out and playTabs
Come out and play (Ver. 2)Tabs
Come out and play - introTabs

Almost there ...

Sign in to get your own page with links to favourite songs and more. You are just one click away...

Login with Facebook Login with Google