Search tabs and chords

Search for song, artist or band

Log in

One click and you are in

Login with Facebook Login with Google

Why sign up and log in

Guitar Tabs Explorer
Billie Eilish guitar tabs for Come out and play (Ver. 2)

Guitar tabs

Tuning: Standard (E chord diagramEE A chord diagramAA D chord diagramDD G chord diagramGG B chord diagramBB E chord diagramEE)

Key: C chord diagramCC

Difficulty: Intermediate

Intro: C chord diagramCC                           C chord diagramCC

e|---------------------------------|------------------------------------------|
B|------------1-------1p0----------|--------1--------1p0----------------------|
G|---------0---------------0-----0-|-----0----------------0---0---------------|
D|------2----------2----------2----|---2----------2---------2-----------------|
A|---3----------3------------------|3----------3------------------------------|
E|---------------------------------|------------------------------------------|
       F chord diagramFF                           F chord diagramFF
e|-------------------------------|--------------------------------------------|
B|-----------1--------1p0--------|-----------1-------1p0----------------------|
G|-------2---------2-------2---2-|--------2-------2--------2---2--------------|
D|----3----------------------3---|-----3---------------------3----------------|
A|-------------------------------|--------------------------------------------|
E|-1------------1----------------|-1-----------1------------------------------|


Verse: 1&2
    C chord diagramCC                               C chord diagramCC
e|---------------------------------|------------------------------------------|
B|------------1-------1p0----------|--------1--------1p0----------------------|
G|---------0---------------0-----0-|-----0----------------0---0---------------|
D|------2----------2----------2----|---2----------2---------2-----------------|
A|---3----------3------------------|3----------3------------------------------|
E|---------------------------------|------------------------------------------|
       F chord diagramFF                          F chord diagramFF
e|-------------------------------|--------------------------------------------|
B|-----------1--------1p0--------|-----------1-------1p0----------------------|
G|-------2---------2-------2---2-|--------2-------2--------2---2--------------|
D|----3----------------------3---|-----3---------------------3----------------|
A|-------------------------------|--------------------------------------------|
E|-1------------1----------------|-1-----------1------------------------------|

Chorus: 1&2
    Dm chord diagramDmDm                           G chord diagramGG                            C chord diagramCC
e|-----------1--------1---1-----|-----------3--------3---3---|-----------------|
B|--------3----3---3--------3---|--------0----0---0----0---0-|-------1---------|
G|-----2---------2------2-------|-----0---------0------------|-----0---0-------|
D|--0---------------------------|----------------------------|---2-------2-----|
A|------------------------------|----------------------------|-3---------------|
E|------------------------------|-3--------------------------|-----------------|
     Em chord diagramEmEm           Am chord diagramAmAm                 Dm chord diagramDmDm                       G chord diagramGG
e|--------------|--------------0--|---------1-------1---1---|---------3--------3|
B|--------0-----|--------1--------|-------3---3---3---3---3-|-------0----0---0--|
G|------0---0---|------2---2------|-----2-------2-----------|-----0--------0----|
D|----2-------2-|----2-------2----|---0---------------------|-------------------|
A|--2-----------|--0--------------|-------------------------|-------------------|
E|--------------|-----------------|-------------------------|--3----------------|
    C chord diagramCC*         Em chord diagramEmEm*         Am chord diagramAmAm*      X4
e|--------|----------|---------------|
B|--1-----|----------|--------1------|
G|--------|----------|--------2------|
D|--2-----|------2---|--------2------|
A|--3-----|------2---|---------------|
E|--------|----------|---------------|

Outro:

    C chord diagramCC*         Em chord diagramEmEm*         Am chord diagramAmAm*   X4      C chord diagramCC
e|--------|-----------|------------|-------------------------------------0-------|
B|--1-----|-----------|-------1----|-----------1----1p0---------1----------------|
G|--------|-----------|-------2----|---------0--0-------------0---0---0----------|
D|--2-----|------2----|-------2----|-------2-----2---------2--------2------------|
A|--3-----|------2----|------------|-----3---------------3-----------------------|
E|--------|-----------|------------|---------------------------------------------|

      C chord diagramCC                       C chord diagramCC
e|---------------------------|-----------------------|
B|-----------1-----1p0-------|--------1-------1------|
G|--------0----0-------0---0-|------0---0---0--------|
D|------2--------2-------2---|---2--------2----------|
A|----3----------------------|-3---------------------|
E|---------------------------|-----------------------|


************************************

| x   Dead note
| g   Grace note
| (n) Ghost note
| h   Hammer-on
| p   Pull-off
| r   Release
| >   Accented note
| t   Tapping
| b   Bend
| br  Bend release
| pb  Pre-bend
| pbr Pre-bend release
| /   Slide up
| \   Slide down
| ~   Vibrato
| s   Slap
| P   Pop
| PM  Palm mute
| TR  Trill
| N   Tremolo

************************************

Other versions of Come Out And Play

Come out and playChords
Come out and play (Ver. 2)Chords
Come out and play ukuleleChords
Come out and play ukulele (Ver. 2)Chords
Come out and playTabs
Come out and play (Ver. 3)Tabs
Come out and play - introTabs

Almost there ...

Sign in to get your own page with links to favourite songs and more. You are just one click away...

Login with Facebook Login with Google