Search tabs and chords

Search for song, artist or band

Log in

One click and you are in

Login with Facebook Login with Google

Why sign up and log in

Guitar Tabs Explorer
Billie Eilish guitar chords for Call me back

Guitar chords with lyrics

Intro:
    Bm chord diagramBmBm                E chord diagramEE         Eadd9 chord diagramEadd9Eadd9         E chord diagramEE
e|--2----2--------2---0--|-------2----2--2----0--|
B|--3----3--------3---0--|--0----0----0--0----0--|
G|--4----4--------4---1--|--1----1----1--1----1--|
D|-----------------------|-----------------------|
A|-----------2-----------|--2----2----2--2----2--|
E|-----------------------|-----------------------|
    A7 chord diagramA7A7   A13 chord diagramA13A13         F#m chord diagramF#mF#m             F#m7 chord diagramF#m7F#m7
e|-------2----2p0--|-------2----2----2p0---------|
B|--2----2----2----|--2----2----2----2-----------|
G|-----------------|--2----2----2----2-----------|
D|--2----2----2----|-----------------------------|
A|--0----0----0----|-----------------------------|
E|-----------------|--2--------------------------|



    Bm chord diagramBmBm                E chord diagramEE         Eadd9 chord diagramEadd9Eadd9         E chord diagramEE
e|--2----2--------2---0--|-------2----2--2----0--|
B|--3----3--------3---0--|--0----0----0--0----0--|
G|--4----4--------4---1--|--1----1----1--1----1--|
D|-----------------------|-----------------------|
A|-----------2-----------|--2----2----2--2----2--|
E|-----------------------|-----------------------|


    A7 chord diagramA7A7  A13 chord diagramA13A13          F#m chord diagramF#mF#m
e|-------2----2p0--|---------|
B|--2----2----2----|--2------|
G|-----------------|--2------|
D|--2----2----2----|---------|
A|--0----0----0----|---------|
E|-----------------|--2------|


Verse 1:

 Bm chord diagramBmBm              E chord diagramEE Eadd9 chord diagramEadd9Eadd9 E chord diagramEE
Wait time is the worst

A7 chord diagramA7A7 A13 chord diagramA13A13        F#m chord diagramF#mF#m   F#m7 chord diagramF#m7F#m7
I can hardly sit

Bm chord diagramBmBm              E chord diagramEE    Eadd9 chord diagramEadd9Eadd9 E chord diagramEE
No one has the time

A7 chord diagramA7A7 A13 chord diagramA13A13           F#m chord diagramF#mF#m    F#m7 chord diagramF#m7F#m7
Someone's always late

Bm chord diagramBmBm          E chord diagramEE  Eadd9 chord diagramEadd9Eadd9 E chord diagramEE
I look for you

A7 chord diagramA7A7  A13 chord diagramA13A13 F#m chord diagramF#mF#m  N.C.
And you look for me

N.C.
Whoa, oh, oh, oh, oh

Interlude:

|: Bm chord diagramBmBm | E chord diagramEE | Eadd9 chord diagramEadd9Eadd9 | E chord diagramEE | A chord diagramAA | A6 chord diagramA6A6 | A chord diagramAA |


Chorus:
    G chord diagramGG                 G chord diagramGG                D chord diagramDD/F# chord diagramF#F#              D chord diagramDD/F# chord diagramF#F#
e|-----------------|-----------------|----------2------|----------2------|
B|----------0------|----------0------|--------------3--|--------------3--|
G|--------------0--|--------------0--|------2----------|------2----------|
D|-----------------|-----------------|-----------------|-----------------|
A|------2----------|------2----------|-----------------|-----------------|
E|--3--------------|--3--------------|--2--------------|--2--------------|
"I don't know why..."

       A chord diagramAA                              A chord diagramAA              Asus2 chord diagramAsus2Asus2        G chord diagramGG
e|-----------------0-------------|----0---------------------------------------|
B|---------2---------------2-----|------------2-------3-------3---0-----------|
G|-----2-------2-------2-------2-|----2---2-------2---2---2-------0-----------|
D|-------------------------------|--------------------------------------------|
A|--0----------------------------|----0---------------0-----------------------|
E|-------------------------------|--------------------------------3-----------|


    G chord diagramGG                            D chord diagramDD/A chord diagramAA                           A chord diagramAA                 Asus4 chord diagramAsus4Asus4    A chord diagramAA
e|--------------3--------------|--------------2--------------|-------------0------------------|
B|--0-------0-------0-------0--|----------3-------3-------3--|---------2---------2/3------2---|
G|--0---0---------------0------|------2---------------2------|-----2-----------2-2--------2---|
D|-----------------------------|-----------------------------|--------------------------------|
A|-----------------------------|--0--------------------------|--0-----------------------------|
E|--3--------------------------|-----------------------------|--------------------------------|
"...In the ground"

Chorus:

G chord diagramGG D chord diagramDD/F# chord diagramF#F#       A chord diagramAA
I don't know why

A chord diagramAA  Asus4 chord diagramAsus4Asus4  G chord diagramGG
I  came  down

G chord diagramGG D chord diagramDD/F# chord diagramF#F#       A chord diagramAA
I hold your phone

 A chord diagramAA   Asus4 chord diagramAsus4Asus4  G chord diagramGG
Don't wake  up

G chord diagramGG D chord diagramDD/F# chord diagramF#F#    A chord diagramAA
I hear a voice

A chord diagramAA  Asus4 chord diagramAsus4Asus4  G chord diagramGG    D chord diagramDD/A chord diagramAA Asus4 chord diagramAsus4Asus4 A chord diagramAA
In the  ground



Bridge:
    Am chord diagramAmAm           Amdim        Am chord diagramAmAm           Am6 chord diagramAm6Am6
e|--10--10--10----9---9---9---10--10--10---12--12--12------------|
B|--11--11--11---11--11--11---11--11--11---11--11--11------------|
G|--12--12--12---12--12--12---12--12--12---12--12--12------------|
D|---------------------------------------------------------------|
A|---------------------------------------------------------------|
E|---------------------------------------------------------------|

    D chord diagramDD         C chord diagramCC         D chord diagramDD         C chord diagramCC
e|--5--5--5---3--3--3---5--5--5---3--3--3------------------------|
B|--7--7--7---5--5--5---7--7--7---5--5--5------------------------|
G|--7--7--7---5--5--5---7--7--7---5--5--5------------------------|
D|---------------------------------------------------------------|
A|---------------------------------------------------------------|
E|---------------------------------------------------------------|

Bridge:

 Am chord diagramAmAm             Amdim
Tell me, don't tell me

    Am chord diagramAmAm             Am6 chord diagramAm6Am6
The hard part is telling

      D chord diagramDD             C chord diagramCC             D chord diagramDD          C chord diagramCC
You something that you would not like me to tell you


 Am chord diagramAmAm             Amdim
Tell me, don't tell me

    Am chord diagramAmAm             Am6 chord diagramAm6Am6
The hard part is telling

      D chord diagramDD             C chord diagramCC             D chord diagramDD         N.C.
You something that you would not like me to tell you

Verse 2:

 Bm chord diagramBmBm                E chord diagramEE   Eadd9 chord diagramEadd9Eadd9 E chord diagramEE
Wait time is to blame

A7 chord diagramA7A7  A13 chord diagramA13A13           F#m chord diagramF#mF#m  F#m7 chord diagramF#m7F#m7
Mat top frame's a trip

Bm chord diagramBmBm               E chord diagramEE   Eadd9 chord diagramEadd9Eadd9  E chord diagramEE
We all have the time

 A7 chord diagramA7A7        A13 chord diagramA13A13   F#m chord diagramF#mF#m  F#m7 chord diagramF#m7F#m7
Someone's always fed

Bm chord diagramBmBm          E chord diagramEE   Eadd9 chord diagramEadd9Eadd9 E chord diagramEE
I look for you,

A7 chord diagramA7A7  A13 chord diagramA13A13 F#m chord diagramF#mF#m  N.C.
and you look away

N.C.
Oh, oh, oh, oh, oh

Interlude:

|: Bm chord diagramBmBm | E chord diagramEE | Eadd9 chord diagramEadd9Eadd9 | E chord diagramEE | A chord diagramAA | A6 chord diagramA6A6 | A chord diagramAA |

Chorus:

G chord diagramGG D chord diagramDD/F# chord diagramF#F#       A chord diagramAA
I don't know why

A chord diagramAA  Asus4 chord diagramAsus4Asus4  G chord diagramGG
I  came  down

G chord diagramGG D chord diagramDD/F# chord diagramF#F#       A chord diagramAA
I hold your phone

 A chord diagramAA   Asus4 chord diagramAsus4Asus4  G chord diagramGG
Don't wake  up

G chord diagramGG D chord diagramDD/F# chord diagramF#F#    A chord diagramAA
I hear a voice

A chord diagramAA  Asus4 chord diagramAsus4Asus4  G chord diagramGG    D chord diagramDD/A chord diagramAA Asus4 chord diagramAsus4Asus4 A chord diagramAA Asus4 chord diagramAsus4Asus4 A chord diagramAA
In the  ground


Outro:

 Am chord diagramAmAm    Amdim  Am chord diagramAmAm      Am6 chord diagramAm6Am6    D chord diagramDD  C chord diagramCC D chord diagramDD C chord diagramCC
Waking up is  so much fun to do

Am chord diagramAmAm  Amdim  Am chord diagramAmAm       Am6 chord diagramAm6Am6        D chord diagramDD  C chord diagramCC D chord diagramDD C chord diagramCC
'80 movie make out party with you



************************************

| p  Pull-off
| /  Slide up


************************************

Call Me Back chords

Billie Eilish guitar chords for Call me back

Billie Eilish covered American rockers The Strokes' "Call Me Back" backstage on The Tonight Show starring Jimmy Fallon in April 2018.

Other versions of Call Me Back

Call me back acousticChords

Almost there ...

Sign in to get your own page with links to favourite songs and more. You are just one click away...

Login with Facebook Login with Google