Search tabs and chords

Search for song, artist or band

Log in

One click and you are in

Login with Facebook Login with Google

Why sign up and log in

Guitar Tabs Explorer
Billie Eilish guitar tabs for Bury a friend

Guitar tabs with lyrics

  • Capo on 3rd
Tuning: Standard (E chord diagramEE A chord diagramAA D chord diagramDD G chord diagramGG B chord diagramBB E chord diagramEE)

Difficulty: Advanced

Intro:

   O O #        O O #   O O #   O + + + + + O O #   O O #   O O #
e|-----------------------------------------------------------------------------------|
B|-----------------------------------------------------------------------------------|
G|-----------------------------------------------------------------------------------|
D|-------f--------f-------f-------------------f-------f------------------------------|
A|-----------------------------------------------------------------------------------|
E|-----------------------------------------------------------------------------------|

Refrain 1:
           O    O       O       O       O       O       O       O       O
e|-------------x-------x-------x-------x-------x-------x-------x-------x-------x-----|
B|-------------x-----0-x-------x-------x-------x-------x-------0---0h1-0-------x-----|
G|-4/5-4-2---0-x---2---2-0-----x---0h2-0-------x-----0-x-------0-------x-2---0-x-----|
D|-------------2-------x-----4-2-------x-4---2-0---4---4-2-----0-------x-------2-----|
A|-------------x-------x---0---x-0-----x---2---x-2-----x-------x-------x-------x-----|
E|---------0---x-0-----x-------x-------x-------x-------x---0-0-x-0-----x---0---x-0---|

   O    O       O       O
e|-----x-------x-------x-------x-----------------------------------------------------|
B|---0-x-------x-------x-------x-----------------------------------------------------|
G|-2---2-0-----x---0h2-0-------x-----------------------------------------------------|
D|-----x-----4-2-------x-4---2-0-4t5p4-2---------------------------------------------|
A|-----x---0---x-0-----x---2---x-----------------------------------------------------|
E|-----x-------x-------x-------x-----------------------------------------------------|

Verse 1:

   O            O       O               O       O       O               O
e|-----x-----------x-------x-----------------x-----------x---------x-----------x-----|
B|-----x-----------x-------x-----------------x-----------x---------x-----------x-----|
G|-----x-----------x-------x-----------------x-----------x---------x-----------x-----|
D|-----7/9\7---7p5-5h7-----x-5-5t7p5t7p5-----7/9\7---7p5-5h7-7-7-5-5h7-5-5h7-5-5h7---|
A|-----x-----------x-------x-----------------x-----------x---------x-----------x-----|
E|-0-0-x-----0-----x---0-0-x-------------0-0-x-----0-----x---0-----x-----0-----x-----|

     O          O       O       O
e|-------x-----------x-------x---------x---------------------x-----------------x-----|
B|-------x-----------x-------0---------x---------------------x-----------------x-----|
G|-------x-----------x-------0---------x---------------------x-----------------x-----|
D|-5-----7/9\7-7-7-5-5h7-----0-5-5h7-5-5h7-5-----5/9\7-7-7-5-5h7-5-5h7-5-5h7-5-5h7---|
A|-------x-----------x-------x---------x---------------------x-----------------x-----|
E|---0-0-x-----0-----x---0-0-x---0-----x-----0-0-------0-----x-----0-----0-----x-----|

e|-----------------------------------------------------------------------------------|
B|-----------------------------------------------------------------------------------|
G|-----------------------------------------------------------------------------------|
D|-5---------------------------------------------------------------------------------|
A|-----------------------------------------------------------------------------------|
E|-----------------------------------------------------------------------------------|

Chorus 1:

e|-----------------------------------------------------------------------------------|
B|-------------------------0:---------------------------------0:-------------------|
G|-----------------------------------------------------------------------------------|
D|-----------------------------2:---0h2-0-0h2---0h2-0-0h2-2:-------0h2-0-0h2-------|
A|---5h7-5-5h7---5h7-5-5h7-----------------------------------------------------------|
E|-0-0-----0---0-0-----0-----------0-0-----0---0-0-----0-----------0-0-----0---0-----|

                                    O
e|-----------------------------------------------------------------------------------|
B|-----------------------------------------------------------------------------------|
G|-----------------------------------------------------------------------------------|
D|-0h2-0-0h2-2/9\2---0h2-0-0h2-----2:-2:-0:-2:-0:-------------------------------|
A|-------------------------------h---------------------------------------------------|
E|0------0---------0-0-----0---0-0---------------------------------------------------|

Post Chorus

   O O O + + + O                O       O       O       O       O       O
e|-------------------------------x---------x---------x---------x-----------------x---|
B|-------------------------------x---------x---------x---------x-----------------x---|
G|---------------4---4-4/5\4-----4---4-----4---4-----4---4-----4---4---4/5\4-----4---|
D|-----------------7-------------x-7-------x-7-------x-7-------x-7---------------x---|
A|---h---------h-----------------x---------x---------x---------x-----------------x---|
E|-0-0-0-------0-------------0-0-x-----0-0-x-----0-0-x-----0-0-x-----0-------0-0-x---|

          O         O
e|---------x---------x---------------------------------------------------------------|
B|---------x---------x---------------------------------------------------------------|
G|---4-----4---4-----4---4-----------------------------------------------------------|
D|-7-------x-7-------x-7-------------------------------------------------------------|
A|---------x---------x---------------------------------------------------------------|
E|-----0-0-x-----0-0-x---------------------------------------------------------------|

Refrain 2:

e|-------------x-------x-------x-------x-------x-------x-------x-------x-------x-----|
B|-------------x-----0-x-------x-------x-------x-------x-------0---0h1-0-------x-----|
G|-4/5-4-2---0-x---2---2-0-----x---0h2-0-------x-----0-x-------0-------x-2---0-x-----|
D|-------------2-------x-----4-2-------x-4---2-0---4---4-2-----0-------x-------2-----|
A|-------------x-------x---0---x-0-----x---2---x-2-----x-------x-------x-------x-----|
E|---------0---x-0-----x-------x-------x-------x-------x---0-0-x-0-----x---0---x-0---|

e|-----x-------x-------x-------x-----------------------------------------------------|
B|---0-x-------x-------x-------x-----------------------------------------------------|
G|-2---2-0-----x---0h2-0-------x-----------------------------------------------------|
D|-----x-----4-2-------x-4---2-0-4t5p4-2---------------------------------------------|
A|-----x---0---x-0-----x---2---x-----------------------------------------------------|
E|-----x-------x-------x-------x-----------------------------------------------------|

Verse 2:

   O            O       O               O       O       O               O
e|-----x-----------x-------x-----------------x-----------x---------x-----------x-----|
B|-----x-----------x-------x-----------------x-----------x---------x-----------x-----|
G|-----x-----------x-------x-----------------x-----------x---------x-----------x-----|
D|-----7/9\7---7p5-5h7-----x-5-5t7p5t7p5-----7/9\7---7p5-5h7-7-7-5-5h7-5-5h7-5-5h7---|
A|-----x-----------x-------x-----------------x-----------x---------x-----------x-----|
E|-0-0-x-----0-----x---0-0-x-------------0-0-x-----0-----x---0-----x-----0-----x-----|

     O          O       O       O
e|-------x-----------x-------x---------x---------------------x-----------------x-----|
B|-------x-----------x-------0---------x---------------------x-----------------x-----|
G|-------x-----------x-------0---------x---------------------x-----------------x-----|
D|-5-----7/9\7-7-7-5-5h7-----0-5-5h7-5-5h7-5-----5/9\7-7-7-5-5h7-5-5h7-5-5h7-5-5h7---|
A|-------x-----------x-------x---------x---------------------x-----------------x-----|
E|---0-0-x-----0-----x---0-0-x---0-----x-----0-0-------0-----x-----0-----0-----x-----|

     O          O       O   O O O       O               O   O O         O           O
e|-------x---------x-----------------x-----------x-----------------------x-----------|
B|-------x---------x-----------------x-----------x-----------------------x-----------|
G|-------4-4-4-2-2-0-0-0-2/4-2-4-----4-4-4-2-2-2-0-0-0-2/4-2-4-----------4-4-4-2-2---|
D|-5-----x---------x-----2/4-2-4-----x-----------x-----2/4-2-4-----------x-----------|
A|-------x---------x-----------------x-----------x-----------------------x-----------|
E|---0-0-x-----0---x-----0---0-0-0-0-x-----0-----x-----0---0-0-0h3p0-0-0-x-----0-----|
           O   O O O         O          O   O O
e|---x-----------------x-----------x-------------------------------------------------|
B|---x-----------------x-----------x-------------------------------------------------|
G|-2-0-0-0-2/4-2-4-----4-4-4-2-2-2-0-0-0---------------------------------------------|
D|---x-----2/4-2-4-----x-----------x-------------------------------------------------|
A|---x-----------------x-----------x-------------------------------------------------|
E|---x-----0---0-0-0-0-x-----0-----x-----5/7-5-0-------------------------------------|

Bridge:

e|-----------------------------------------------------------------------------------|
B|-----------------------0---0-----------0-0-5-5/7-7/8-5h7-7/8-5-------0---0---------|
G|---9---9-----5-4-2-0-0---0---0-0-2-0---------------------------5-4-4---0---0-0-2---|
D|-9---9---9-9-------------------------2---------------------------------------------|
A|-------------0-0-0-0---2-2-2-2---------------------------0---0-0-0---2-2-2-2-------|
E|---0-0-0-0-----------------------0-0-0-0---0-0---0---0-------------------------0---|

e|-----------------------------------------------------------------------------------|
B|-----------------------------------------------------------------------------------|
G|-0---------------------------------------------------------------------------------|
D|---2-------------------------------------------------------------------------------|
A|-----------------------------------------------------------------------------------|
E|-0-0-------------------------------------------------------------------------------|

Chorus 1:

e|-----------------------------------------------------------------------------------|
B|-------------------------0:---------------------------------0:-------------------|
G|-----------------------------------------------------------------------------------|
D|-----------------------------2:---0h2-0-0h2---0h2-0-0h2-2:-------0h2-0-0h2-------|
A|---5h7-5-5h7---5h7-5-5h7-----------------------------------------------------------|
E|-0-0-----0---0-0-----0-----------0-0-----0---0-0-----0-----------0-0-----0---0-----|

                                    O
e|-----------------------------------------------------------------------------------|
B|-----------------------------------------------------------------------------------|
G|-----------------------------------------------------------------------------------|
D|-0h2-0-0h2-2/9\2---0h2-0-0h2-----2:-2:-0:-2:-0:-------------------------------|
A|-------------------------------h---------------------------------------------------|
E|0------0---------0-0-----0---0-0---------------------------------------------------|

Post Chorus

   O O O + + + O                O       O       O       O       O       O
e|-------------------------------x---------x---------x---------x-----------------x---|
B|-------------------------------x---------x---------x---------x-----------------x---|
G|---------------4---4-4/5\4-----4---4-----4---4-----4---4-----4---4---4/5\4-----4---|
D|-----------------7-------------x-7-------x-7-------x-7-------x-7---------------x---|
A|---h---------h-----------------x---------x---------x---------x-----------------x---|
E|-0-0-0-------0-------------0-0-x-----0-0-x-----0-0-x-----0-0-x-----0-------0-0-x---|

          O         O
e|---------x---------x---------------------------------------------------------------|
B|---------x---------x---------------------------------------------------------------|
G|---4-----4---4-----4---4-----------------------------------------------------------|
D|-7-------x-7-------x-7-------------------------------------------------------------|
A|---------x---------x---------------------------------------------------------------|
E|-----0-0-x-----0-0-x---------------------------------------------------------------|

Refrain 1:
           O    O       O       O       O       O       O       O       O
e|-------------x-------x-------x-------x-------x-------x-------x-------x-------x-----|
B|-------------x-----0-x-------x-------x-------x-------x-------0---0h1-0-------x-----|
G|-4/5-4-2---0-x---2---2-0-----x---0h2-0-------x-----0-x-------0-------x-2---0-x-----|
D|-------------2-------x-----4-2-------x-4---2-0---4---4-2-----0-------x-------2-----|
A|-------------x-------x---0---x-0-----x---2---x-2-----x-------x-------x-------x-----|
E|---------0---x-0-----x-------x-------x-------x-------x---0-0-x-0-----x---0---x-0---|

   O    O
e|-----x-------x---------------------------------------------------------------------|
B|---0-x-------x---------------------------------------------------------------------|
G|-2---2-0-----x---0h2-0-------------------------------------------------------------|
D|-----x-----4-2---------4---2-0-4/5:-4:-2:---------------------------------------|
A|-----x---0---x-0---------2---------------------------------------------------------|
E|-----x-------x---------------------------------------------------------------------|


*************************************
x = slap strings
O = wrist bump
\ = slide down
/ = slide up
h = hammer on
p = pull off
# = tap below sound hole of guitar
+ = tap above sound hole of guitar
f = fret tap
t = string tap
:= pluck harmonic
h = hit string
*************************************

Other versions of Bury A Friend

Bury a friendChords
Bury a friend (Ver. 2)Chords
Bury a friend ukuleleChords

Almost there ...

Sign in to get your own page with links to favourite songs and more. You are just one click away...

Login with Facebook Login with Google