Log in

One click and you are in

Login with Facebook Login with Google

Why sign up and log in

Guitar Tabs Explorer
Billie Eilish bass tabs for Bored (Ver. 2)

Bass tabs with lyrics

Tuning: EADG

 Ahhhh      Ahhhh    The games you played were never fun

G|---------------------------------------------------------------|
D|---------------------------------------------------------------|
A|---------------2--2-2------------------------------------------|
E|------3--3-3---------------------------------------------------|

 You'd say you'd stay but then you'd run

G|---------------------------------------------------------------|
D|---------------------------------------------------------------|
A|---------------------------------------2--2-2------------------|
E|-------3-----------------3-3-----------------------------------|

   Giving you what you're begging for, giving you what you

G|---------------------------------------------------------------|
D|---------------------------------------------------------------|
A|-2-------------------------------------------------------------|
E|---0--------------------------------3--------------------------|

 Say I need, I don't want any settled scores I just want you to

G|---------------------------------------------------------------|
D|---------------------------------------------------------------|
A|----------3-----------------------------3----------------------|
E|---------------------------------------------------------------|

 Set me free  Giving you what you're begging for

G|---------------------------------------------------------------|
D|---------------------------------------------------------------|
A|-5-------------------------------------------------------------|
E|---------------0---------------------------------3-------------|

 Giving you what you say I need, say I need

G|---------------------------------------------------------------|
D|---------------------------------------------------------------|
A|-----------------------------3-------------3--5----------------|
E|---------------------------------------------------------------|

I'm not afraid anymore
What makes you sure you're all I need?
Forget about it
When you walk out the door and leave me torn
You're teaching me to live without it
Bored, I'm so bored, I'm so bored, so bored

    I'm home alone, you God knows where

G|---------------------------------------------------------------|
D|------------------------------------------------5--------------|
A|-----------------------------------------2--2-2----------------|
E|--3-3----------------------------------------------------------|

 I hope you don't think that shit's fair

G|---------------------------------------------------------------|
D|------------------------------------------------5-2-0----------|
A|------------------------3-3--------------2--2-2----------------|
E|----3----------------------------------------------------------|

  Giving you all you want and more, Giving you every piece of me

G|---------------------------------------------------------------|
D|---------------------------------------------------------------|
A|-------------------------------------------------------------3-|
E|-0------------------------------3------------------------------|

But I will never can afford I just want you to love for free

G|---------------------------------------------------------------|
D|---------------------------------------------------------------|
A|-----------------------3------------------------5-5-5----------|
E|---------------------------------------------------------------|

  Can't you see that I'm getting bored? Giving you every piece of me

G|---------------------------------------------------------------|
D|---------------------------------------------------------------|
A|-------------------------------------------------------------3-|
E|-0--------------------------------3----------------------------|

 Piece of me    I'm not afraid anymore What makes you sure

G|---------------------------------------------------------------|
D|---------------------------------------------------------------|
A|----------3--5---------------------------------------------2---|
E|------------------3-------------------0------------------------|

you're all I need? Forget about it  When you walk out the door

G|---------------------------------------------------------------|
D|---------------------------------------------------------------|
A|-------------3-------------------------------------------------|
E|----------------------------------3-------------------------0--|

And leave me torn you're teaching me to live without it

G|---------------------------------------------------------------|
D|---------------------------------------------------------------|
A|-------------2-----------------3-------------------------------|
E|---------------------------------------------------------------|

       I'm so bored     I'm so bored  so bored

G|---------------------------------------------------------------|
D|---------------------------------------------------------------|
A|-3----------------------2---2-3-------0---------------2---2-3--|
E|---3---3-0------------0-----------------3----3-0----0----------|

   Giving you what you're begging for, giving you what you

G|---------------------------------------------------------------|
D|---------------------------------------------------------------|
A|-3-------------------------------------------------------------|
E|---3--------------------------------3-0------------------------|

 Say I need, I don't want any settled scores I just want you to

G|---------------------------------------------------------------|
D|---------------------------------------------------------------|
A|--------2----------------------------2-3-----------------------|
E|------0--------------------------------------------------------|

 Set me free  Giving you what you're begging for

G|---------------------------------------------------------------|
D|---------------------------------------------------------------|
A|---------3-----------------------------------------------------|
E|-----------3-----------------------------------3-0-------------|


 Giving you what you say I need, say I need

G|---------------------------------------------------------------|
D|---------------------------------------------------------------|
A|-----------------------------2--------------2-3----------------|
E|---------------------------0-----------------------------------|

I'm not afraid anymore
What makes you sure you're all I need?
Forget about it
And when you walk out the door and leave me torn
You're teaching me to live without it


| / slide up
| \ slide down
| h hammer-on
| p pull-off
| ~ vibrato
| + harmonic
| x Mute note

Other versions of Bored

BoredBass tabs

Almost there ...

Sign in to get your own page with links to favourite songs and more. You are just one click away...

Login with Facebook Login with Google