Log in

One click and you are in

Login with Facebook Login with Google

Why sign up and log in

Guitar Tabs Explorer
Billie Eilish bass tabs for Billie bossa nova

Bass tabs

Tuning: Standard (EADG)


Intro

G|-----------------|
D|-----------------|
A|-----------------| x8
E|-----------------|
  1 + 2 + 3 + 4 +


Verse 1

G|-----------------|-----------------|-----------------|-----------------|
D|-----------------|-----------------|-----------------|-----------------|
A|---------3-----3-|---3-----3/5\3\1-|-----------------|-----------------|
E|-----------------|-----------------|-3-------3-----3-|---3-----3/5/6\3-|
  1 + 2 + 3 + 4 +  1 + 2 + 3 + 4 +  1 + 2 + 3 + 4 +  1 + 2 + 3 + 4 +

G|-----------------|-----------------|-----------------|-----------------|
D|-----------------|-----------------|-----------------|-----------------|
A|-3-----3.3-----3-|---3-----3/5\3\1-|---------------1-|---1-----1-------|
E|-----------------|-----------------|-3-------3-------|-----------------|
  1 + 2 + 3 + 4 +  1 + 2 + 3 + 4 +  1 + 2 + 3 + 4 +  1 + 2 + 3 + 4 +

G|-----------------|-----------------|-----------------|-----------------|
D|-----------------|-----------------|-----------------|-----------------|
A|-3-------3-----3-|---3-----3/5\3\1-|-----------------|-----------------|
E|-----------------|-----------------|-3-------3-----3-|---3-----3/5/6\3-|
  1 + 2 + 3 + 4 +  1 + 2 + 3 + 4 +  1 + 2 + 3 + 4 +  1 + 2 + 3 + 4 +

G|-----------------|-----------------|-----------------|-----------------|
D|-----------------|-----------------|-----------------|-----------------|
A|-3-----3.3-----3-|---3-----3/5\3\1-|---------------1-|---1-----1-------|
E|-----------------|-----------------|-3-------3-------|-----------------|
  1 + 2 + 3 + 4 +  1 + 2 + 3 + 4 +  1 + 2 + 3 + 4 +  1 + 2 + 3 + 4 +


Pre-Chorus

G|-----------------|-----------------|-----------------|-----------------|
D|-----------------|-----------------|-----------------|-----------------|
A|-----------------|-----------------|-----------------|-----------------|
E|-----------------|-----------------|-3-------3-----3-|---3-----3/5/6\3-|
  1 + 2 + 3 + 4 +  1 + 2 + 3 + 4 +  1 + 2 + 3 + 4 +  1 + 2 + 3 + 4 +

G|-----------------|-----------------|-----------------|-----------------|
D|-----------------|-----------------|-----------------|-----------------|
A|-3-----3.3-----3-|---3-----3/5\3\1-|---------------1-|---1-------------|
E|-----------------|-----------------|-3-------3-------|-----------------|
  1 + 2 + 3 + 4 +  1 + 2 + 3 + 4 +  1 + 2 + 3 + 4 +  1 + 2 + 3 + 4 +


Chorus

G|-----------------|-----------------|-----------------|-----------------|
D|-----------------|-----------------|-----------------|-----------------|
A|-3-------3-----3-|---3-----3/5\3\1-|-----------------|-----------------|
E|-----------------|-----------------|-3-------3-----3-|---3-----3/5/6\3-|
  1 + 2 + 3 + 4 +  1 + 2 + 3 + 4 +  1 + 2 + 3 + 4 +  1 + 2 + 3 + 4 +

G|-----------------|-----------------|-----------------|-----------------|
D|-----------------|-----------------|-----------------|-----------------|
A|-3-----3.3-----3-|---3-----3/5\3\1-|---------------1-|---1-----1-------|
E|-----------------|-----------------|-3-------3-------|-----------------|
  1 + 2 + 3 + 4 +  1 + 2 + 3 + 4 +  1 + 2 + 3 + 4 +  1 + 2 + 3 + 4 +


Verse 2

G|-----------------|-----------------|-----------------|-----------------|
D|-----------------|-----------------|-----------------|-----------------|
A|-----------------|-----------------|-----------------|-----------------|
E|-----------------|-----------------|-3-------3-----3-|---3-----3/5/6\3-|
  1 + 2 + 3 + 4 +  1 + 2 + 3 + 4 +  1 + 2 + 3 + 4 +  1 + 2 + 3 + 4 +

G|-----------------|-----------------|-----------------|-----------------|
D|-----------------|-----------------|-----------------|-----------------|
A|-3-----3.3-----3-|---3-----3/5\3\1-|---------------1-|---1-----1-------|
E|-----------------|-----------------|-3-------3-------|-----------------|
  1 + 2 + 3 + 4 +  1 + 2 + 3 + 4 +  1 + 2 + 3 + 4 +  1 + 2 + 3 + 4 +


Pre-Chorus

G|-----------------|-----------------|-----------------|-----------------|
D|-----------------|-----------------|-----------------|-----------------|
A|-3-------3-----3-|---3-----3/5\3\1-|-----------------|-----------------|
E|-----------------|-----------------|-3-------3-----3-|---3-----3/5/6\3-|
  1 + 2 + 3 + 4 +  1 + 2 + 3 + 4 +  1 + 2 + 3 + 4 +  1 + 2 + 3 + 4 +

G|-----------------|-----------------|-----------------|-----------------|
D|-----------------|-----------------|-----------------|-----------------|
A|-3-----3.3-----3-|---3-----3/5\3\1-|---------------1-|-----------------|
E|-----------------|-----------------|-3-------3-------|-----------------|
  1 + 2 + 3 + 4 +  1 + 2 + 3 + 4 +  1 + 2 + 3 + 4 +  1 + 2 + 3 + 4 +


Chorus

G|-----------------|-----------------|-----------------|-----------------|
D|-----------------|-----------------|-----------------|-----------------|
A|-3-------3-----3-|---3-----3/5\3\1-|-----------------|-----------------|
E|-----------------|-----------------|-3-------3-----3-|---3-----3/5/6\3-|
  1 + 2 + 3 + 4 +  1 + 2 + 3 + 4 +  1 + 2 + 3 + 4 +  1 + 2 + 3 + 4 +

G|-----------------|-----------------|-----------------|-----------------|
D|-----------------|-----------------|-----------------|-----------------|
A|-3-----3.3-----3-|---3-----3/5\3\1-|---------------1-|---1-----1-------|
E|-----------------|-----------------|-3-------3-------|-----------------|
  1 + 2 + 3 + 4 +  1 + 2 + 3 + 4 +  1 + 2 + 3 + 4 +  1 + 2 + 3 + 4 +

G|-----------------|-----------------|-----------------|-----------------|
D|-----------------|-----------------|-----------------|-----------------|
A|-3-------3-----3-|---3-----3/5\3\1-|-----------------|-----------------|
E|-----------------|-----------------|-3-------3-----3-|---3-----3/5/6\3-|
  1 + 2 + 3 + 4 +  1 + 2 + 3 + 4 +  1 + 2 + 3 + 4 +  1 + 2 + 3 + 4 +

G|-----------------|-----------------|-----------------|-----------------|
D|-----------------|-----------------|-----------------|-----------------|
A|-3-----3.3-----3-|---3-----3/5\3\1-|---------------1-|---1-----1-------|
E|-----------------|-----------------|-3-------3-------|-----------------|
  1 + 2 + 3 + 4 +  1 + 2 + 3 + 4 +  1 + 2 + 3 + 4 +  1 + 2 + 3 + 4 +


Solo

G|-----------------|-----------------|-----------------|-----------------|
D|-----------------|-----------------|-----------------|-----------------|
A|-3-------3-----3-|---3-----3/5\3\1-|-----------------|-----------------|
E|-----------------|-----------------|-3-------3-----3-|---3-----3/5/6\3-|
  1 + 2 + 3 + 4 +  1 + 2 + 3 + 4 +  1 + 2 + 3 + 4 +  1 + 2 + 3 + 4 +

G|-----------------|-----------------|-----------------|-----------------|
D|-----------------|-----------------|-----------------|-----------------|
A|-3-----3.3-----3-|---3-----3/5\3\1-|---------------1-|---1-----1-------|
E|-----------------|-----------------|-3-------3-------|-----------------|
  1 + 2 + 3 + 4 +  1 + 2 + 3 + 4 +  1 + 2 + 3 + 4 +  1 + 2 + 3 + 4 +


Outro (Fade out)

G|-----------------|-----------------|-----------------|-----------------|
D|-----------------|-----------------|-----------------|-----------------|
A|-3-------3-----3-|---3-----3/5\3\1-|-----------------|-----------------|
E|-----------------|-----------------|-3-------3-----3-|---3-----3/5/6\3-|
  1 + 2 + 3 + 4 +  1 + 2 + 3 + 4 +  1 + 2 + 3 + 4 +  1 + 2 + 3 + 4 +

G|-----------------|-----------------|-----------------|-----------------|
D|-----------------|-----------------|-----------------|-----------------|
A|-3-----3.3-----3-|---3-----3/5\3\1-|---------------1-|---1-----1-------|
E|-----------------|-----------------|-3-------3-------|-----------------|
  1 + 2 + 3 + 4 +  1 + 2 + 3 + 4 +  1 + 2 + 3 + 4 +  1 + 2 + 3 + 4 +


🏷Legend:

/ - Slide up
\ - Slide down
. - Staccato

Almost there ...

Sign in to get your own page with links to favourite songs and more. You are just one click away...

Login with Facebook Login with Google