Search tabs and chords

Search for song, artist or band

Log in

One click and you are in

Login with Facebook Login with Google

Why sign up and log in

Guitar Tabs Explorer
Billie Eilish guitar tabs for Bad guy

Guitar tabs

Tuning: Standard (E chord diagramEE A chord diagramAA D chord diagramDD G chord diagramGG B chord diagramBB E chord diagramEE)

Key: C chord diagramCC

Difficulty: Novice

bpm 132 this is quite fast

Solo:

e|--------|-----6-5--------|-----6-5--------|------6-5--------|------6-5----------|
B|-----8--|---8------8--8--|---8-----8---8--|----8-----8---8--|----8-----8----10--|
G|---7----|--7---------7---|--7--------7----|--7---------7----|--7----------9-----|
D|--------|----------------|----------------|-----------------|-------------------|
A|--------|----------------|----------------|-----------------|-------------------|
E|--------|----------------|----------------|-----------------|-------------------|

e|-------8-7----------|-------8-7-------------|----------------------|
B|----10-----10---10--|----10-----10------13--|-----13-15------------|
G|--9-----------9-----|--9-------------12-----|--12-------12-12------|
D|--------------------|-----------------------|----------------------|
A|--------------------|-----------------------|----------------------|
E|--------------------|-----------------------|----------------------|

Other versions of Bad Guy

Bad guyChords
Bad guy (Ver. 2)Chords
Bad guy ukuleleChords
Bad guy (Ver. 2)Tabs

Almost there ...

Sign in to get your own page with links to favourite songs and more. You are just one click away...

Login with Facebook Login with Google