Log in

One click and you are in

Login with Facebook Login with Google

Why sign up and log in

Guitar Tabs Explorer
Billie Eilish bass tabs for Bad guy remix

Bass tabs

Tuning: Drop D


Intro:
  Q  E E E E E E  E E E E E E Q   Q  E E E E E E  E E E E E E Q
G|-----------------|-----------------|-----------------|-----------------|
D|-----------------|-----------------|-----------------|-----------------|
A|-----r-------r---|-r---r-----------|-----r-------r---|-r---r-----------|
D|-5-----5-8-5---5-|---5---5-8-5-3---|-5-----5-8-5---5-|---5---5-8-5-3---|

  Q  E E E E E E  E E E E E E Q   Q  E E E E E E  E E E E H
G|-----------------|-----------------|-----------------|-----------------|
D|-----r-------r---|-r---r------/5---|-0-----0-4-0-----|-----------------|
A|-3-----3-6-3---3-|---3---3-6-3-----|-----r-------r---|-r---r---r-------|
D|-----------------|-----------------|---------------0-|---0---0---------|
Verse 1:
"White shirt now red..."
  Q  E E E E E E  E E E E E E Q   Q  E E E E E E  E E E E E E Q
G|-----------------|-----------------|-----------------|-----------------|
D|-----------------|-----------------|-----------------|-----------------|
A|-----r-------r---|-r---r-----------|-----r-------r---|-r---r-----------|
D|-5-----5-8-5---5-|---5---5-8-5-3---|-5-----5-8-5---5-|---5---5-8-5-3---|

  Q  E E E E E E  E E E E E E Q   Q  E E E E E e  E e E e H
G|-----------------|-----------------|-----------------|-----------------|
D|-----r-------r---|-r---r------/5---|-0-----0-4-0-----|-----------------|
A|-3-----3-6-3---3-|---3---3-6-3-----|-----r-------r---|-r---r---r-------|
D|-----------------|-----------------|---------------0-|---0---0---------|


Verse 2:
"Bruises on both..."
  Q  E E E E E E  E E E E E E Q   Q  E E E E E E  E E E E E E Q
G|-----------------|-----------------|-----------------|-----------------|
D|-----------------|-----------------|-----------------|-----------------|
A|-----r-------r---|-r---r-----------|-----r-------r---|-r---r-----------|
D|-5-----5-8-5---5-|---5---5-8-5-3---|-5-----5-8-5---5-|---5---5-8-5-3---|

  Q  E E E E E E  E E E E E E Q   Q  E E E E E E  W
G|-----------------|-----------------|-----------------|-----------------|
D|-----r-------r---|-r---r------/5---|-0-----0-4-0-----|-----------------|
A|-3-----3-6-3---3-|---3---3-6-3-----|-----r-------r---|-r---------------|
D|-----------------|-----------------|---------------0-|-----------------|

Chorus 1:
"So you're a tough guy..."
  Q  E E E E E E  E E E E E E Q   Q  E E E E E E  E E H.
G|-----------------|-----------------|-----------------|-----------------|
D|-----------------|-----------------|-----------------|-----------------|
A|-----r-------r---|-r---r-----------|-----r-------r---|-r---r-----------|
D|-5-----5-8-5---5-|---5---5-8-5-3---|-5-----5-8-5---5-|---5-------------|

  Q  E E E E E E  E E E E E E Q   Q  E E E E E E  E E H.
G|-----------------|-----------------|-----------------|-----------------|
D|-----r-------r---|-r---r------/5---|-0-----0-4-0-----|-----------------|
A|-3-----3-6-3---3-|---3---3-6-3-----|-----r-------r---|-r---r-----------|
D|-----------------|-----------------|---------------0-|---0-------------|

  W         W
G|-----------------|-----------------|
D|-----------------|-----------------|
A|-r---------------|-r---------------|
D|-----------------|-----------------|


Bridge 1:
  Q  E E E E E E  E E E E E E Q   Q  E E E E E E  E E E E E E Q
G|-----------------|-----------------|-----------------|-----------------|
D|-----------------|-----------------|-----------------|-----------------|
A|-----r-------r---|-r---r-----------|-----r-------r---|-r---r-----------|
D|-5-----5-8-5---5-|---5---5-8-5-3---|-5-----5-8-5---5-|---5---5-8-5-3---|

  Q  E E E E E E  E E E E E E Q   Q  E E E E E E  E E E E H
G|-----------------|-----------------|-----------------|-----------------|
D|-----r-------r---|-r---r------/5---|-0-----0-4-0-----|-----------------|
A|-3-----3-6-3---3-|---3---3-6-3-----|-----r-------r---|-r---r---r-------|
D|-----------------|-----------------|---------------0-|---0---0---------|


Verse 3:
"Gold teeth, my neck..."
  Q  E E E E E E  E E E E E E Q   Q  E E E E E E  E E E E E E Q
G|-----------------|-----------------|-----------------|-----------------|
D|-----------------|-----------------|-----------------|-----------------|
A|-----r-------r---|-r---r-----------|-----r-------r---|-r---r-----------|
D|-5-----5-8-5---5-|---5---5-8-5-3---|-5-----5-8-5---5-|---5---5-8-5-3---|

  Q  E E E E E E  E E E E E E Q   Q  E E E E E E  E E E E E S S S S S S
G|-----------------|-----------------|-----------------|-----------------------|
D|-----r-------r---|-r---r------/5---|-0-----0-4-0-----|-----------------------|
A|-3-----3-6-3---3-|---3---3-6-3-----|-----r-------r---|-r---r---r-5-5-3-3-1-1-|
D|-----------------|-----------------|---------------0-|---0---0---------------|


Verse 4:
"Tattoos on both..."
  Q  E E E E E E  E E E E E E Q   Q  E E E E E E  E E E E E E Q
G|-----------------|-----------------|-----------------|-----------------|
D|-----------------|-----------------|-----------------|-----------------|
A|-----r-------r---|-r---r-----------|-----r-------r---|-r---r-----------|
D|-5-----5-8-5---5-|---5---5-8-5-3---|-5-----5-8-5---5-|---5---5-8-5-3---|

  Q  E E E E E E  E E E E E E Q   Q  E E E E E E  W
G|-----------------|-----------------|-----------------|-----------------|
D|-----r-------r---|-r---r------/5---|-0-----0-4-0-----|-----------------|
A|-3-----3-6-3---3-|---3---3-6-3-----|-----r-------r---|-r---------------|
D|-----------------|-----------------|---------------0-|-----------------|


Chorus 2:
"Yeah, I'm a bad guy..."
  Q  E E E E E E  E E E E E E Q   Q  E E E E E E  E E E E H
G|-----------------|-----------------|-----------------|-----------------|
D|-----------------|-----------------|-----------------|-----------------|
A|-----r-------r---|-r---r-----------|-----r-------r---|-r---r---r-------|
D|-5-----5-8-5---5-|---5---5-8-5-3---|-5-----5-8-5---5-|---5---5---------|

  Q  E E E E E E  E E E E E E Q   Q  E E E E E E  E E H.
G|-----------------|-----------------|-----------------|-----------------|
D|-----r-------r---|-r---r------/5---|-0-----0-4-0-----|-----------------|
A|-3-----3-6-3---3-|---3---3-6-3-----|-----r-------r---|-r---r-----------|
D|-----------------|-----------------|---------------0-|---0-------------|

  W         W
G|-----------------|-----------------|
D|-----------------|-----------------|
A|-r---------------|-r---------------|
D|-----------------|-----------------|


Bridge 2:
  Q  E E E E E E  E E E E E E Q   Q  E E E E E E  E E E E E E Q
G|-----------------|-----------------|-----------------|-----------------|
D|-----------------|-----------------|-----------------|-----------------|
A|-----r-------r---|-r---r-----------|-----r-------r---|-r---r-----------|
D|-5-----5-8-5---5-|---5---5-8-5-3---|-5-----5-8-5---5-|---5---5-8-5-3---|

  Q  E E E E E E  E E E E E E Q   Q  E E E E E E  E E E E H
G|-----------------|-----------------|-----------------|-----------------|
D|-----r-------r---|-r---r------/5---|-0-----0-4-0-----|-----------------|
A|-3-----3-6-3---3-|---3---3-6-3-----|-----r-------r---|-r---r---r-------|
D|-----------------|-----------------|---------------0-|---0---0---------|

  Q  E E E E E E  E E E E E E Q   Q  E E E E E E  E E E E E E Q
G|-----------------|-----------------|-----------------|-----------------|
D|-----------------|-----------------|-----------------|-----------------|
A|-----r-------r---|-r---r-----------|-----r-------r---|-r---r-----------|
D|-5-----5-8-5---5-|---5---5-8-5-3---|-5-----5-8-5---5-|---5---5-8-5-3---|

  Q  E E E E E E  E E E E E E Q   Q  E E E E E E  E E E E H
G|-----------------|-----------------|-----------------|-----------------|
D|-----r-------r---|-r---r------/5---|-0-----0-4-0-----|-----------------|
A|-3-----3-6-3---3-|---3---3-6-3-----|-----r-------r---|-r---r---r-------|
D|-----------------|-----------------|---------------0-|---0---0---------|

  W
G|-----------------|
D|-----------------|
A|-r---------------|
D|-----------------|


Outro:
  ~     ~            ~     ~
  H.     Q   (+H)   H    H.     Q   (+H)   H
G|-----------------|-----------------|-----------------|-----------------|
D|-----------------|-----------------|-----------------|-----------------|
A|-----------------|----------r------|-----------------|---------r-------|
D|-5\---------5----|-(5\)------------|-5\---------5----|-(5\)------------|

"I like when you get mad..."
  ~     ~            ~     ~
  H.     Q   (+H)   H    H.     Q   (+H)   H
G|-----------------|-----------------|-----------------|-----------------|
D|-----------------|-----------------|-----------------|-----------------|
A|-----------------|----------r------|-----------------|---------r-------|
D|-5\---------5----|-(5\)------------|-5\---------5----|-(5\)------------|

  ~     ~
  H.     Q   (+H)   H    W         W
G|-----------------|-----------------|-----------------|-----------------|
D|-----------------|-----------------|-----------------|-----------------|
A|-----------------|----------r------|-r---------------|-r---------------|
D|-5\---------5----|-(5\)------------|-----------------|-----------------|

  ~     ~            ~     ~
  H.     Q   (+H)   H    H.     Q   (+H)   H
G|-----------------|-----------------|-----------------|-----------------|
D|-----------------|-----------------|-----------------|-----------------|
A|-----------------|----------r------|-----------------|---------r-------|
D|-5\---------5----|-(5\)------------|-5\---------5----|-(5\)------------|

  ~     ~            ~     ~
  H.     Q   (+H)   H    H.     Q   (+H)   H
G|-----------------|-----------------|-----------------|-----------------|
D|-----------------|-----------------|-----------------|-----------------|
A|-----------------|----------r------|-----------------|---------r-------|
D|-5\---------5----|-(5\)------------|-5\---------5----|-(5\)------------|


Duration 🏷Legend
---------------
W - whole; H - half; Q - quarter; E - 8th; S - 16th; T - 32nd; X - 64th; a - acciaccatura
+ - note tied to previous; . - note dotted; .. - note double dotted
Uncapitalized letters represent notes that are staccato (1/2 duration)

Tablature 🏷Legend
----------------
 r  - rest
 /\ - slide into or out of (from/to "nowhere")
 ~  - vibrato

Almost there ...

Sign in to get your own page with links to favourite songs and more. You are just one click away...

Login with Facebook Login with Google