Log in

One click and you are in

Login with Facebook Login with Google

Why sign up and log in

Guitar Tabs Explorer
Billie Eilish bass tabs for Bad guy (Ver. 4)

Bass tabs

G|-----------------------------------------|
D|-----------------------------------------|
A|----1---------1----------1---------1-----|
E|3-3---3-3-3-3---3-1--3-3---3-3-3-3---3-1-|

G|-----------------------------------------|
D|-----1---------1---/5------3-------------|
A|-3-3---3-3-3-3---3-----5-5---5-5-5-5-----|
E|-----------------------------------------|

The final three notes are played a lower octave so maybe a 5 sting bass can play this better

then at the end (2:30)

G|------------|
D|------------|
A|------------|
E|3-----3-----|

Other versions of Bad Guy

Bad guyBass tabs
Bad guy (Ver. 2)Bass tabs
Bad guy (Ver. 3)Bass tabs

↓ Add and view comments below ↓

What do you think about this song and these tabs?

Add your comments, questions, rant or a thumbs up below.

Almost there ...

Sign in to get your own page with links to favourite songs and more. You are just one click away...

Login with Facebook Login with Google