Search tabs and chords

Search for song, artist or band

Log in

One click and you are in

Login with Facebook Login with Google

Why sign up and log in

Guitar Tabs Explorer
Billie Eilish guitar tabs for All the good girls go to hell

Guitar tabs

  • Capo on 4th
Tuning: Standard (E chord diagramEE A chord diagramAA D chord diagramDD G chord diagramGG B chord diagramBB E chord diagramEE)

Intro:

N.H

e|---------------------------------------------------------------------------|
B|---------------------------------------------------------------------------|
G|----12--------------12-----------------------------------------------------|
D|--------16--14--16------16--14/13------------------------------------------|
A|---------------------------------------------------------------------------|
E|---------------------------------------------------------------------------|
Verse:

e|-------------------------------------------------------------------------------|
B|---------0-------------0---------------0------------------------0--------------|
G|---------0--2--2-------0--2--2---------0--2--2-----2---------------2--2--------|
D|---------2-------------2---------------2--------5-----5--5---------------------|
A|-----------------0--0------------3--3---------------------------x--------------|
E|---0--0--x-------------x---------------x------------------------x--------------|

     o             o        o              o

e|---------------------------------------------------------------------------|
B|---0--1--0-----------------------------------------------------------------|
G|---2-------2--2--0--0--2--4--5--4--2--2--0--0------------------------------|
D|---2----------------------4------------------------------------------------|
A|---0-----x----------x-----2-----x-----------x------------------------------|
E|---------x----------x-----------x-----------x------------------------------|

e|-------------------------------------------------------------------------------|
B|---------0-------------0---------------0------------------------0--------------|
G|---------0--2--2-------0--2--2---------0--2--2-----2---------------2--2--------|
D|---------2-------------2---------------2--------5-----5--5---------------------|
A|-----------------0--0------------3--3---------------------------x--------------|
E|---0--0--x-------------x---------------x------------------------x--------------|

     o             o        o              o

e|---------------------------------------------------------------------------|
B|---0--1--0-----------------------------------------------------------------|
G|---2-------2--2--0--0--2--4--5--4--2--2--0--0------------------------------|
D|---2----------------------4------------------------------------------------|
A|---0-----x----------x-----2-----x-----------x------------------------------|
E|---------x----------x-----------x-----------x------------------------------|

Pre-Chorus:

e|---------------------------------------------------------------------------|
B|---------------------------------------------------------------------------|
G|-----0------------------------0--------------------------------------------|
D|-----2--4----2--4-4/5\4--2----2--4-----2--4/5\4--2-------------------------|
A|----------------------------3-------3--------------------------------------|
E|---0----x-0----------------------x-----------------------------------------|

                                  o        o

e|--------------------------------0------0----2--2--2--2-----------------------|
B|----------------------------------4------4--4--4--4--4-----------------------|
G|------0---------------------------4------4--4--4--4--4-----------------------|
D|------2--4-----2--4-4/5\4--2-------------------------------------------------|
A|---0--------0-------------------2---2--x-------------------------------------|
E|---------x-----------------------------x-------------------------------------|

Chorus:

     o            o      o        o                o      o

e|---------------------------------------------------------------------------|
B|---0-----0--0-------0---------------0-0-0-0--1-0---------------------------|
G|---0--2--0-----0--------------------0--------------------------------------|
D|---2--2--2------2-2--------------------------------------------------------|
A|---------x-------------3--3--x--3-3-------x------2-2-x--2-2---2-x----------|
E|---0-----x--------x-----------------------x--------------------------------|

       o      o

e|----------------------------------------------------------------------------|
B|--0----------------0--------------------------------------------------------|
G|-----5---4----2----0--------------------------------------------------------|
D|-----4---4----4-------------------------------------------------------------|
A|-----2-2-x--2---2--x--------------------------------------------------------|
E|---------x---------x--------------------------------------------------------|

     o            o      o        o                o      o

e|---------------------------------------------------------------------------|
B|---0-----0--0-------0---------------0-0-0-0--1-0---------------------------|
G|---0--2--0-----0--------------------0---------------------0-2-0------------|
D|---2--2--2------2-2--------------------------------------------------------|
A|---------x-------------3--3--x--3-3-------x------2-2-x--2---x--------------|
E|---0-----x--------x-----------------------x-----------------x--------------|

       o      o             o       o       o        o         o       o

e|--------------------------3-2---0---------------------------------------------|
B|--------------------------0-0---0-0-------1--0-------0----------0--1----------|
G|-----5---4----------------0-------0-------0--0--0------2--0--2--4-------------|
D|-----4---4----4----4--4p2~----------------------2--2---------2-----2-2--------|
A|-----2-2-x--2---2--x------------x---------3---x--------x-----0---0-x----------|
E|---------x---------x------0---0-x---0-x-0-----x--------x-----------x----------|

          o       o

e|---------------------------------------------------------------------------|
B|--------------0---1-0------------------------------------------------------|
G|--------0--2---------------------------------------------------------------|
D|---2\1---------------------------------------------------------------------|
A|--------2---2-x-2---x------------------------------------------------------|
E|--------------x-----x------------------------------------------------------|


Verse:

e|-------------------------------------------------------------------------------|
B|---------0-------------0---------------0------------------------0--------------|
G|---------0--2--2-------0--2--2---------0--2--2-----2---------------2--2--------|
D|---------2-------------2---------------2--------5-----5--5---------------------|
A|-----------------0--0------------3--3---------------------------x--------------|
E|---0--0--x-------------x---------------x------------------------x--------------|

     o             o        o              o

e|---------------------------------------------------------------------------|
B|---0--1--0-----------------------------------------------------------------|
G|---2-------2--2--0--0--2--4--5--4--2--2--0--0------------------------------|
D|---2----------------------4------------------------------------------------|
A|---0-----x----------x-----2-----x-----------x------------------------------|
E|---------x----------x-----------x-----------x------------------------------|

e|-------------------------------------------------------------------------------|
B|---------0-------------0---------------0------------------------0--------------|
G|---------0--2--2-------0--2--2---------0--2--2-----2---------------2--2--------|
D|---------2-------------2---------------2--------5-----5--5---------------------|
A|-----------------0--0------------3--3---------------------------x--------------|
E|---0--0--x-------------x---------------x------------------------x--------------|

     o             o        o              o

e|---------------------------------------------------------------------------|
B|---0--1--0-----------------------------------------------------------------|
G|---2-------2--2--0--0--2--4--5--4--2--2--0--0------------------------------|
D|---2----------------------4------------------------------------------------|
A|---0-----x----------x-----2-----x-----------x------------------------------|
E|---------x----------x-----------x-----------x------------------------------|

Pre-Chorus:

e|---------------------------------------------------------------------------|
B|---------------------------------------------------------------------------|
G|-----0------------------------0--------------------------------------------|
D|-----2--4----2--4-4/5\4--2----2--4-----2--4/5\4--2-------------------------|
A|----------------------------3-------3--------------------------------------|
E|---0----x-0----------------------x-----------------------------------------|

                                  o        o

e|--------------------------------0------0----2--2--2--2-----------------------|
B|----------------------------------4------4--4--4--4--4-----------------------|
G|------0---------------------------4------4--4--4--4--4-----------------------|
D|------2--4-----2--4-4/5\4--2-------------------------------------------------|
A|---0--------0-------------------2---2--x-------------------------------------|
E|---------x-----------------------------x-------------------------------------|

Chorus:

     o            o      o        o                o      o

e|---------------------------------------------------------------------------|
B|---0-----0--0-------0---------------0-0-0-0--1-0---------------------------|
G|---0--2--0-----0--------------------0--------------------------------------|
D|---2--2--2------2-2--------------------------------------------------------|
A|---------x-------------3--3--x--3-3-------x------2-2-x--2-2---2-x----------|
E|---0-----x--------x-----------------------x--------------------------------|

       o      o

e|----------------------------------------------------------------------------|
B|--0----------------0--------------------------------------------------------|
G|-----5---4----2----0--------------------------------------------------------|
D|-----4---4----4-------------------------------------------------------------|
A|-----2-2-x--2---2--x--------------------------------------------------------|
E|---------x---------x--------------------------------------------------------|

     o            o      o        o                o      o

e|---------------------------------------------------------------------------|
B|---0-----0--0-------0---------------0-0-0-0--1-0---------------------------|
G|---0--2--0-----0--------------------0---------------------0-2-0------------|
D|---2--2--2------2-2--------------------------------------------------------|
A|---------x-------------3--3--x--3-3-------x------2-2-x--2---x--------------|
E|---0-----x--------x-----------------------x-----------------x--------------|

       o      o             o       o       o        o         o       o

e|--------------------------3-2---0---------------------------------------------|
B|--------------------------0-0---0-0-------1--0-------0----------0--1----------|
G|-----5---4----------------0-------0-------0--0--0------2--0--2--4-------------|
D|-----4---4----4----4--4p2~----------------------2--2---------2-----2-2--------|
A|-----2-2-x--2---2--x------------x---------3---x--------x-----0---0-x----------|
E|---------x---------x------0---0-x---0-x-0-----x--------x-----------x----------|

          o          o      o       o       o        o        o       o

e|-------------0-2-3-2-2--2-2-0--3-----5-7--0---------------------------------|
B|-----------0-0-----1-0----0----0--0-------0--0---0---0---------0--1---------|
G|--------0--2--------------0------------------0---0-----2--0-2--4------------|
D|---2\1------------------------------------------------------2-----2-2-------|
A|--------2------------x---------x-----x----3----3---3---x----0---0-x---------|
E|---------------------x----0--0-x-----x-----------x-----x----------x---------|

          o          o

e|-------------0-2-3-2-2--0---------------------------|
B|-----------0-0-----1-0------------------------------|
G|--------0--2----------------------------------------|
D|---2\1----------------------------------------------|
A|--------2------------x------------------------------|
E|---------------------x------------------------------|

Outro:

e|---------------------------------------------------------------------------|
B|---------------------------------------------------------------------------|
G|---------------------------------------------------------------------------|
D|--------------------------0---8/10-0-----5/7-5-7-5-7--9--10-9p7--5-4-5-2---|
A|-----------5/7--5----------------------------------------------------------|
E|------0----------0-0--------8-------8-8------------------------------------|




************************************

| /  Slide up
| x  Dead note
| \  Slide down
| p  Pull-off
| ~  Vibrato

************************************

Other versions of All The Good Girls Go To Hell

All the good girls go to hellChords
All the good girls go to hell (Ver. 2)Chords
All the good girls go to hell ukuleleChords

Almost there ...

Sign in to get your own page with links to favourite songs and more. You are just one click away...

Login with Facebook Login with Google