Search tabs and chords

Search for song, artist or band

Log in

One click and you are in

Login with Facebook Login with Google

Why sign up and log in

Guitar Tabs Explorer
Billie Eilish bass tabs for All the good girls go to hell

All The Good Girls Go To Hell bass tab by Billie Eilish

Billie Eilish bass tabs for All the good girls go to hell

Bass tabs

Tuning: Standard (E A D G)

Difficulty: Novice

Billie Eilish : "All the good girls go to hell"
Intro:
No bass

Verse - 0:14:
G|-----------------------------------------------------|
D|-----------------------------------------------------| x2
A|-----/11-9-------------7-4----2-4--2424-4--6-464-2-4-|
E|-4--------11-11--12\-4----44-------------------------|

Pre-Chorus - 0:36:
G|-----------------------------------------------------|
D|-----------------------------------------------------|
A|-----------------------2-4--2-44-4--6-464-2-4--------|
E|-4--2-4-4--7\-0--2-0-0------------------------4------|

Chorus - 0:46:
No bass

Post-Chorus - 1:07:
G|-----------------------------------------------------|
D|-----------------------------------------------------|
A|-----/11-9-------------7-4----2-4--2424-4--6-464-2-4-|
E|----------11-11--12\-4----44-------------------------|

Verse - 1:17:
G|-----------------------------------------------------|
D|-----------------------------------------------------|
A|-----/11-9-------------7-4----2-4--2424-4--6---------|
E|-4--------11-11--12\-4----44-------------------------|

G|-----------------------------------------------------|
D|-----------------------------------------------------|
A|-----/11-9-------------7-4----2-4--2424-4--6-464-2-4-|
E|-4--------11-11--12\-4----44-------------------------|

Pre-Chorus - 1:38:
G|-----------------------------------------------------|
D|-----------------------------------------------------|
A|-----------------------2-4--2-44-4--6-464-2-4--------|
E|-4--2-4-4--7\-0--2-0-0-------------------------------|

Chorus - 1:49:
G|----------------------------------------------|
D|---------------------------------------------=|
A|-----------------------2-4--2-44-4--6-464-2-4-|
E|--------------0--2-0-0------------------------|

G|-----------------------------------------------------|
D|-----------------------------------------------------|
A|-----------------------2-4--2-44-4--6----------------|
E|-4--2-4-4--7\-0--2-0-0-------------------------------|

Post-Chorus/Outro - 2:10:
G|-----------------------------------------------------|
D|-----------------------------------------------------| x3
A|-----/11-9-------------7-4----2-4--2424-4--6-464-2-4-|
E|-4--------11-11--12\-4----44-------------------------|

G|-----|
D|-----|
A|-----|
E|-4---|


Key
----------------
| / Slide up
| \ Slide down
----------------

Other versions of All The Good Girls Go To Hell

All the good girls go to hell (Ver. 2)Bass tabs

Almost there ...

Sign in to get your own page with links to favourite songs and more. You are just one click away...

Login with Facebook Login with Google