Search tabs and chords

Search for song, artist or band

Log in

One click and you are in

Login with Facebook Login with Google

Why sign up and log in

Guitar Tabs Explorer
Billie Eilish bass tabs for All the good girls go to hell (Ver. 2)

All The Good Girls Go To Hell bass tab by Billie Eilish (Ver. 2)

Billie Eilish bass tabs for All the good girls go to hell (Ver. 2)

Bass tabs

Tuning: Standard (E A D G)

Key: Ab

Difficulty: Intermediate

Intro: 0:00

No bass

Verse 1: 0:14

G|---------------|---------------|--------------|-------------|
D|----6-4--------|---------------|--------------|-------------|
A|---------------|----7-6------2-|-4--2h4p2h4-2-|-6--6-6-4-2-4|
E|-4------4-4--7-|-4------4-4----|--------------|-------------|

Play twice

Pre-Chorus 1: 0:36

G|-------------|-------------|--------------|---------------|
D|-------------|-------------|--------------|---------------|
A|-----------2-|-----------2-|-4--2h4p2h4-2-|-6--6-6-4-2-4--|
E|-4--2-4-4----|-0--2-0-0----|--------------|--------------4|

Chorus 1: 0:46

No bass

Post-Chorus 1: 1:08

G|------------|---------------|--------------|-------------|
D|-6-4--------|---------------|--------------|-------------|
A|------------|----7-6------2-|-4--2h4p2h4-2-|-6--6-6-4-2-4|
E|-----4-4--7-|-4------4-4----|--------------|-------------|

Verse 2: 1:17

G|---------------|---------------|--------------|-------|
D|----6-4--------|---------------|--------------|-------|
A|---------------|----7-6------2-|-4--2h4p2h4-2-|-6-----|
E|-4------4-4--7-|-4------4-4----|--------------|-------|

G|---------------|---------------|--------------|-------------|
D|----6-4--------|---------------|--------------|-------------|
A|---------------|----7-6------2-|-4--2h4p2h4-2-|-6--6-6-4-2-4|
E|-4------4-4--7-|-4------4-4----|--------------|-------------|

Pre-Chorus 2: 1:38

G|-------------|-------------|--------------|---------------|
D|-------------|-------------|--------------|---------------|
A|-----------2-|-----------2-|-4--2h4p2h4-2-|-6--6-6-4-2-4--|
E|-4--2-4-4----|-0--2-0-0----|--------------|--------------4|

Chorus 2: 1:48

G|-----r-----|-------------|--------------|---------------|
D|-----e-----|-------------|--------------|---------------|
A|-----s-----|-----------2-|-4--2h4p2h4-2-|-6--6-6-4-2-4--|
E|-----t-----|-0--2-0-0----|--------------|--------------4|

G|-------------|-------------|--------------|---------------|
D|-------------|-------------|--------------|---------------|
A|-----------2-|-----------2-|-4--2h4p2h4-2-|-6--6-6-4-2-4--|
E|-4--2-4-4----|-0--2-0-0----|--------------|--------------4|

Post-Chorus 2: 2:09

G|------------|---------------|--------------|-------------|
D|-6-4--------|---------------|--------------|-------------|
A|------------|----7-6------2-|-4--2h4p2h4-2-|-6--6-6-4-2-4|
E|-----4-4--7-|-4------4-4----|--------------|-------------|

G|---------------|---------------|--------------|-------------|
D|----6-4--------|---------------|--------------|-------------|
A|---------------|----7-6------2-|-4--2h4p2h4-2-|-6--6-6-4-2-4|
E|-4------4-4--7-|-4------4-4----|--------------|-------------|

Outro: 2:29

G|---------------|---------------|--------------|---------------|
D|----6-4--------|---------------|--------------|---------------|
A|---------------|----7-6------2-|-4--2h4p2h4-2-|-6--6-6-4-2-4--|
E|-4------4-4--7-|-4------4-4----|--------------|--------------4|


************************************

| h   Hammer-on
| p   Pull-off

************************************

Other versions of All The Good Girls Go To Hell

All the good girls go to hellBass tabs

Almost there ...

Sign in to get your own page with links to favourite songs and more. You are just one click away...

Login with Facebook Login with Google