Log in

One click and you are in

Login with Facebook Login with Google

Why sign up and log in

Guitar Tabs Explorer
Billie Eilish bass tabs for 8

Bass tabs

Tuning: Drop D (D A D G)

Key: Eb

Difficulty: Novice

Bass enters at 0:30

Interlude
G|----|----|----|------|
D|----|----|----|------|
A|----|----|3---|1-----|
D|1---|0---|----|--5h6-|

Chorus
G|----|----|------|-------------|----|----|------|----|
D|----|----|------|-------------|----|----|------|----|
A|----|----|------|1------------|----|----|------|1---|
D|1---|5---|3--1h3|---5h6-5-3-5-|1---|5---|3--1h3|----|


Interlude
G|----|----|----|------|
D|----|----|----|------|
A|----|----|3---|1-----|
D|1---|0---|----|--5h6-|


Verse
G|----|----|----|------|
D|----|----|----|------|
A|----|----|3---|1-----|
D|1---|0---|----|--5h6-|


Bridge
G|----|----|------|----|
D|----|----|------|----|
A|----|----|------|1---|
D|1---|5---|3--1h3|----|


Interlude
G|----|----|----|------|
D|----|----|----|------|
A|----|----|3---|1-----|
D|1---|0---|----|--5h6-|


Chorus
G|----|----|------|-------------|----|----|------|----|
D|----|----|------|-------------|----|----|------|----|
A|----|----|------|1------------|----|----|------|1---|
D|1---|5---|3--1h3|---5h6-5-3-5-|1---|5---|3--1h3|----|

*****************

|h Hammer-on

*****************

Almost there ...

Sign in to get your own page with links to favourite songs and more. You are just one click away...

Login with Facebook Login with Google