Search tabs and chords

Search for song, artist or band

Log in

One click and you are in

Login with Facebook Login with Google

Why sign up and log in

Guitar Tabs Explorer
Billie Eilish guitar tabs for 6 18 18

Guitar tabs with lyrics

Tuning: Standard (E A D G B E)

Intro:

e|-----1-------0-1-0----------------------------------------------------0----|
B|---3---3---3-------3-1---3-------------------------------------------------|
G|-2-------2-----------------0---0-2-3---3-2-0----0-2-3-2-0-------0----------|
D|-----0-----------------------------1----------3---3---------2-3-------2----|
A|---------------------3--------------------------------------------3--------|
E|---------------------------------------------------------------------------|
Verse:
    A chord diagramDmDm               A chord diagramC/GC/G                            Dm/G
e|---1----------------0------------------------------1-----------------------|
B|---3----------------1------------------------------3-----------------------|
G|---2----------------0------------------------------0-----------------------|
D|---0-----------------------------------------------0-----------------------|
A|---------------------------------------------------------------------------|
E|---------------------------------------------------------------------------|
Our time is up. Your eyes are shut, i won't, get to tell you what

   A chord diagramD5D5           A chord diagramA minorAm
e|--x------------0----------1-----------------0------------------------------|
B|--3------------1----------3-----------------1------------------------------|
G|--2------------2----------2-----------------0------------------------------|
D|--0------------0----------0------------------------------------------------|
A|---------------------------------------------------------------------------|
E|---------------------------------------------------------------------------|
i needed you to know. It's dark enough. The moonlight doesn't show


e|--1-------------------x----------------0-----------------------------------|
B|--3-------------------3----------------1-----------------------------------|
G|--0-------------------2----------------2-----------------------------------|
D|--0-------------------0----------------0-----------------------------------|
A|---------------------------------------------------------------------------|
E|---------------------------------------------------------------------------|
and all my love, could never bring you home.

Chorus:

e|--------------1-------------------------0-------------------1--------------|
B|--------------3-------------------------1-------------------3--------------|
G|--------------2-------------------------0-------------------0--------------|
D|--------------0---------------------------------------------0--------------|
A|---------------------------------------------------------------------------|
E|---------------------------------------------------------------------------|
There's no more stars to find, and i'm too far behind. And i'd love to let you go

e|---0----------------0---------------------1----------------------0---------|
B|---1----------------1---------------------3----------------------1---------|
G|---2----------------2---------------------2----------------------0---------|
D|---0----------------0---------------------0--------------------------------|
A|---------------------------------------------------------------------------|
E|---------------------------------------------------------------------------|
i'd love to let you go. You're all that's on my mind. I called a thousand times.

e|-----1------------------------x------------------------------------1-------|
B|-----3------------------------3------------------------------------3-------|
G|-----0------------------------2------------------------------------2-------|
D|-----0------------------------0------------------------------------0-------|
A|---------------------------------------------------------------------------|
E|---------------------------------------------------------------------------|
And I have to let you go, but I love you more and more than you could know.


Verse:

e|--1-----------0-----------------------1------------------------------------|
B|--3-----------1-----------------------3------------------------------------|
G|--2-----------0-----------------------0------------------------------------|
D|--0-----------------------------------0------------------------------------|
A|---------------------------------------------------------------------------|
E|---------------------------------------------------------------------------|
 I sat alone. Awaited your reply. Was driven home


e|----x------------0-------1------------------0------------------------------|
B|----3------------1-------3------------------1------------------------------|
B|----3------------1-------3------------------1------------------------------|
D|----0------------0-------0-------------------------------------------------|
A|---------------------------------------------------------------------------|
E|---------------------------------------------------------------------------|
when I started to cry. I should've known, I should've said goodbye.


e|--1-------------x----------------0-----------------------------------------|
B|--3-------------3----------------1-----------------------------------------|
G|--0-------------2----------------2-----------------------------------------|
D|--0-------------0----------------0-----------------------------------------|
A|---------------------------------------------------------------------------|
E|---------------------------------------------------------------------------|
 I only hoped, I would've had more time.


Chorus:

e|--------------1-------------------------0-------------------1--------------|
B|--------------3-------------------------1-------------------3--------------|
G|--------------2-------------------------0-------------------0--------------|
D|--------------0---------------------------------------------0--------------|
A|---------------------------------------------------------------------------|
E|---------------------------------------------------------------------------|
There's no more stars to find, and i'm too far behind. And i'd love to let you go

e|---0----------------0---------------------1----------------------0---------|
B|---1----------------1---------------------3----------------------1---------|
G|---2----------------2---------------------2----------------------0---------|
D|---0----------------0---------------------0--------------------------------|
A|---------------------------------------------------------------------------|
E|---------------------------------------------------------------------------|
i'd love to let you go. You're all that's on my mind. I called a thousand times.

e|-----1------------------------x------------------------------------1-------|
B|-----3------------------------3------------------------------------3-------|
G|-----0------------------------2------------------------------------2-------|
D|-----0------------------------0------------------------------------0-------|
A|---------------------------------------------------------------------------|
E|---------------------------------------------------------------------------|
And I have to let you go, but I love you more and more than you could know.


Interlude:

Dm, C/G, Dm/G, A chord diagramA minorAm


Bridge:

e|-------------1------------------------------0------------------5-----------|
B|-------------3------------------------------1------------------6-----------|
G|-------------2------------------------------0------------------7-----------|
D|-------------0-------------------------------------------------0-----------|
A|---------------------------------------------------------------------------|
E|---------------------------------------------------------------------------|
We're both too young, to live and die this way. A chord diagramA majorA sunny summer day

e|----------------0-------------1--------------------0-----------------------|
B|----------------1-------------3--------------------1-----------------------|
G|----------------2-------------2--------------------0-----------------------|
D|----------------0-------------0--------------------------------------------|
A|---------------------------------------------------------------------------|
E|---------------------------------------------------------------------------|
with so much left to say. Not 21, the 18th out of pain,

e|-------------------5-------------------------3--------------------1--------|
B|-------------------6-------------------------5--------------------3--------|
G|-------------------7-------------------------5--------------------2--------|
D|-------------------0----------------------------------------------0--------|
A|---------------------------------------------------------------------------|
E|---------------------------------------------------------------------------|
the day you couldn't stay. You made me wanna pray, but I think god's fake.


Chorus:

e|--------------1-------------------------0-------------------1--------------|
B|--------------3-------------------------1-------------------3--------------|
G|--------------2-------------------------0-------------------0--------------|
D|--------------0---------------------------------------------0--------------|
A|---------------------------------------------------------------------------|
E|---------------------------------------------------------------------------|
There's no more stars to find, and i'm too far behind. And i'd love to let you go

e|---0----------------0---------------------1----------------------0---------|
B|---1----------------1---------------------3----------------------1---------|
G|---2----------------2---------------------2----------------------0---------|
D|---0----------------0---------------------0--------------------------------|
A|---------------------------------------------------------------------------|
E|---------------------------------------------------------------------------|
i'd love to let you go. You're all that's on my mind. I called a thousand times.

e|-----1---------------------------------------------------------------------|
B|-----3---------------------------------------------------------------------|
G|-----0---------------------------------------------------------------------|
D|-----0---------------------------------------------------------------------|
A|---------------------------------------------------------------------------|
E|---------------------------------------------------------------------------|
And I have to let you go,

Outro:

e|----0------------------------------------1---------------------------------|
B|----1------------------------------------3---------------------------------|
G|----2------------------------------------2---------------------------------|
D|----0------------------------------------0---------------------------------|
A|---------------------------------------------------------------------------|
E|---------------------------------------------------------------------------|
But I love you more and more and more and more and more, more and more,
e|-0----------------------------------------1-------------------0------------|
B|-1----------------------------------------3-------------------1------------|
G|-0----------------------------------------0-------------------2------------|
D|------------------------------------------0-------------------0------------|
A|---------------------------------------------------------------------------|
E|---------------------------------------------------------------------------|
   more and more and more than you will ever know. You will never know.
 You will never know.

************************************

| x   Dead note

************************************

Other versions of 6 18 18

6 18 18Chords
6 18 18 (Ver. 2)Chords
6 18 18 ukuleleChords

Almost there ...

Sign in to get your own page with links to favourite songs and more. You are just one click away...

Login with Facebook Login with Google