Log in

One click and you are in

Login with Facebook Login with Google

Why sign up and log in

Guitar Tabs Explorer
Bikini Kill bass tabs for Double dare ya

Bass tabs

Tuning: Standard (E A D G)


Intro:

G|---------------------------------------------------------------------------|
D|---------------------------------------------------------------------------|
A|0-0-0-7-7-7-6-6-6-5-5-5-0-0-0-7-7-7-6-6-6-5-5-5----------------------------|
E|---------------------------------------------------------------------------| 2x

Verse 1:

G|---------------------------------------------------------------------------|
D|---------------------------------------------------------------------------|
A|0-0-0-7-7-7-6-6-6-5-5-5-0-0-0-7-7-7-6-6-6-5-5-5----------------------------|
E|---------------------------------------------------------------------------| 6x


Chorus:

G|---------------------------------------------------------------------------|
D|---------------------------------------------------------------------------|
A|2-2-0-0-2-2-0-0-2-2-0-0-2-2-2-2--------------------------------------------|
E|---------------------------------------------------------------------------|

G|---------------------------------------------------------------------------|
D|---------------------------------------------------------------------------|
A|2-2-0-0-2-2-0-0-2-2-0-0-2-2-2-2-2-2-2-2------------------------------------|
E|---------------------------------------------------------------------------|


Fill:

G|---------------------------------------------------------------------------|
D|---------------------------------------------------------------------------|
A|0-0-0-7-7-7-6-6-6-5-5-5-0-0-0-7-7-7-6-6-6-5-5-5----------------------------|
E|---------------------------------------------------------------------------| 4x


Verse 2:

G|---------------------------------------------------------------------------|
D|---------------------------------------------------------------------------|
A|0-0-0-7-7-7-6-6-6-5-5-5-0-0-0-7-7-7-6-6-6-5-5-5----------------------------|
E|---------------------------------------------------------------------------| 6x


Chorus:

G|---------------------------------------------------------------------------|
D|---------------------------------------------------------------------------|
A|2-2-0-0-2-2-0-0-2-2-0-0-2-2-2-2--------------------------------------------|
E|---------------------------------------------------------------------------|

G|------------------------------------------------------------------------------|
D|------------------------------------------------------------------------------|
A|2-2-0-0-2-2-0-0-2-2-0-0-2-2-2-2-2-2-2-2---------------------------------------|
E|------------------------------------------------------------------------------|


Bridge:

G|---------------------------------------------------------------------------|
D|---------------------------------------------------------------------------|
A|0-0-0-0-0-0-0-0-0-0-0-0-2-2-2-2-2-2----------------------------------------|
E|---------------------------------------------------------------------------|6x

G|---------------------------------------------------------------------------|
D|---------------------------------------------------------------------------|
A|2-2-0-0-2-2-0-0-2-2-0-0-2-2-2-2--------------------------------------------|
E|---------------------------------------------------------------------------|


Chorus:

G|---------------------------------------------------------------------------|
D|---------------------------------------------------------------------------|
A|2-2-0-0-2-2-0-0-2-2-0-0-2-2-2-2--------------------------------------------|
E|---------------------------------------------------------------------------|

G|------------------------------------------------------------------------------|
D|------------------------------------------------------------------------------|
A|2-2-0-0-2-2-0-0-2-2-0-0-2-2-2-2-2-2-2-2---------------------------------------|
E|------------------------------------------------------------------------------|


Outro:

G|---------------------------------------------------------------------------|
D|---------------------------------------------------------------------------|
A|2--2-2-2-2--2-2-2-2--2-2-2-2-2-2-2-2-2-2-----------------------------------|
E|---------------------------------------------------------------------------| 2x

G|---------------------------------------------------------------------------|
D|---------------------------------------------------------------------------|
A|0-0-0-0-0-0-0-0-0-0-0-0-0-0-0-0-0-0-0-0-0-0-0-0-0-0-0-0-0-0----------------|
E|---------------------------------------------------------------------------|


************************************
Enjoy! Please give me feedback on
anything I can do to improve this
tab!
************************************
ⓘ Bass guitar tab for 'Double Dare Ya' by Bikini Kill, a punk rock band formed in 1991 from Olympia, Washington. They retired in 1997

Almost there ...

Sign in to get your own page with links to favourite songs and more. You are just one click away...

Login with Facebook Login with Google