Log in

One click and you are in

Login with Facebook Login with Google

Why sign up and log in

Guitar Tabs Explorer
Bikini Kill bass tabs for Carnival

Bass tabs

Tuning: Drop D (D A D G)

Difficulty: Novice

EP: Bikini Kill (1992)
Bass enters at :10
Intro:
G|------------------------|------------------------|------------------------|------------------------|
D|------------------------|------------------------|------------------------|------------------------|
A|------------------------|------------------------|------------------------|------------------------|
D|-8--8--8--8--8--8--8--8-|-8--8--8--8--8--8--8--8-|-8--8--8--8--8--8--8--8-|-8--8--8--8--8--8--8--8-|

G|------------------------|------------------------|------------------------|------------------------|
D|------------------------|------------------------|------------------------|------------------------|
A|------------------------|------------------------|------------------------|------------------------|
D|-6--6--6--6--6--6--6--6-|-6--6--6--6--6--6--6--6-|-6--6--6--6--6--6--6--6-|-6--6--6--6--6--6--6--6-|

G|-------------------------|------------------------|------------------------|------------------------|
D|o------------------------|------------------------|------------------------|------------------------|
A|o------------------------|------------------------|------------------------|------------------------|
D|--1--1--1--1--1--1--1--1-|-1--1--1--1--1--1--1--1-|-1--1--1--1--1--1--1--1-|-1--1--1--1--1--1--1--1-|

G|------------------------|------------------------|------------------------|-------------------------|
D|------------------------|------------------------|------------------------|------------------------o| x 2
A|------------------------|------------------------|------------------------|------------------------o|
D|-6--6--6--6--6--6--6--6-|-6--6--6--6--6--6--6--6-|-6--6--6--6--6--6--6--6-|-6--6--6--6--6--6--6--6--|


Verse 1:
G|-------------------------|------------------------|------------------------|------------------------|
D|o------------------------|------------------------|------------------------|------------------------|
A|o------------------------|------------------------|------------------------|------------------------|
D|--1--1--1--1--1--1--1--1-|-1--1--1--1--1--1--1--1-|-1--1--1--1--1--1--1--1-|-1--1--1--1--1--1--1--1-|

G|------------------------|------------------------|------------------------|-------------------------|
D|------------------------|------------------------|------------------------|------------------------o| x 4
A|------------------------|------------------------|------------------------|------------------------o|
D|-6--6--6--6--6--6--6--6-|-6--6--6--6--6--6--6--6-|-6--6--6--6--6--6--6--6-|-6--6--6--6--6--6--6--6--|

Chorus:
G|------------------------|------------------------|------------------------|------------------------|
D|------------------------|------------------------|------------------------|------------------------|
A|------------------------|------------------------|------------------------|------------------------|
D|-8--8--8--8--8--8--8--8-|-8--8--8--8--8--8--8--8-|-8--8--8--8--8--8--8--8-|-8--8--8--8--8--8--8--8-|

G|------------------------|------------------------|------------------------|------------------------|
D|------------------------|------------------------|------------------------|------------------------|
A|------------------------|------------------------|------------------------|------------------------|
D|-6--6--6--6--6--6--6--6-|-6--6--6--6--6--6--6--6-|-6--6--6--6--6--6--6--6-|-6--6--6--6--6--6--6--6-|


Verse 2:
G|-------------------------|------------------------|------------------------|------------------------|
D|o------------------------|------------------------|------------------------|------------------------|
A|o------------------------|------------------------|------------------------|------------------------|
D|--1--1--1--1--1--1--1--1-|-1--1--1--1--1--1--1--1-|-1--1--1--1--1--1--1--1-|-1--1--1--1--1--1--1--1-|

G|------------------------|------------------------|------------------------|-------------------------|
D|------------------------|------------------------|------------------------|------------------------o| x 6
A|------------------------|------------------------|------------------------|------------------------o|
D|-6--6--6--6--6--6--6--6-|-6--6--6--6--6--6--6--6-|-6--6--6--6--6--6--6--6-|-6--6--6--6--6--6--6--6--|


Outro:
G|------------------------|------------------------|------------------------|------------------------|
D|------------------------|------------------------|------------------------|------------------------|
A|------------------------|------------------------|------------------------|------------------------|
D|-8--8--8--8--8--8--8--8-|-8--8--8--8--8--8--8--8-|-8--8--8--8--8--8--8--8-|-8--8--8--8--8--8--8--8-|

G|------------------------|------------------------|------------------------|------------------------|
D|------------------------|------------------------|------------------------|------------------------|
A|------------------------|------------------------|------------------------|------------------------|
D|-6--6--6--6--6--6--6--6-|-6--6--6--6--6--6--6--6-|-6--6--6--6--6--6--6--6-|-6--6--6--6--6--6--6--6-|

G|------------------------|------------------------|------------------------|------------------------|
D|------------------------|------------------------|------------------------|------------------------|
A|------------------------|------------------------|------------------------|------------------------|
D|-1~~~-------------------|------------------------|------------------------|------------------------|


******************************

🏷Legend:
~ - Let ring

******************************
ⓘ Bass guitar tab for 'Carnival' by Bikini Kill, a punk rock band formed in 1991 from Olympia, Washington. They retired in 1997

Almost there ...

Sign in to get your own page with links to favourite songs and more. You are just one click away...

Login with Facebook Login with Google