Log in

One click and you are in

Login with Facebook Login with Google

Why sign up and log in

Guitar Tabs Explorer
Big Thief bass tabs for Mythological beauty

Bass tabs with lyrics

Tuning: Standard (E A D G)



Verse 1:
You have a mythological beauty
You have the eye of someone I have seen
Outside of ordinary situations
Even outside of dreams

G|-------------------------------------------------|
D|-------------------------------------------------|
A|---8-8-8-8-13-13-13-13-10-10-10-10-13-13-13-13---| x4
E|-------------------------------------------------|
You lie in bed at night and watch the lines
Of headlights through your screen
There is a child inside you
Who’s trying to raise a child in me


Chorus:
G|--------------------------------|--------------------------------|
D|--------------------------------|--------------------------------|
A|----------------------------8---|---------------------------10---|
E|--------------------------------|---6----------------------------|
  If you wanna leave          You just have to say

G|---------------------------------------------------------------------------------|
D|-------8/10--12p10-12---12p10----------------8/10--12p10-12---12p10--------------|
A|---8----------------------------10h12-10-8---------------------------------------|
E|---------------------------------------------------------------------------------|
  You’re all caught up inside  But you know the way

Verse 2:
G|-------------------------------------------------|
D|-------------------------------------------------|
A|---8-8-8-8-13-13-13-13-10-10-10-10-13-13-13-13---| x8
E|-------------------------------------------------|
You cut the flesh of your left thumb
Using your boyfriend’s knife
Seventeen, you took his cum
And you gave birth to your first life
You gave Andrew a family who you thought
Could love and take better care
I have an older brother I don’t know
He could be anywhere


Chorus:
G|--------------------------------|--------------------------------|
D|--------------------------------|--------------------------------|
A|----------------------------8---|---------------------------10---|
E|--------------------------------|---6----------------------------|
  If you wanna leave          You just have to say

G|---------------------------------------------------12p10-------------------------|
D|-------8/10--12p10-12---12p10----------------8/10--------12---12p10--------------|
A|---8----------------------------10h12-10-8---------------------------------------|
E|---------------------------------------------------------------------------------|
  You’re all caught up inside  But you know the way

G|---------------------------------------------------12p10-------------------------|
D|-------8/10--12p10-12---12p10----------------8/10--------12---12p10--------------|
A|---8----------------------------10h12-10-8---------------------------------------|
E|---------------------------------------------------------------------------------|
  You’re all caught up inside  But you know the way


Verse 3:
G|-------------------------------------------------|
D|-------------------------------------------------|
A|---8-8-8-8-13-13-13-13-10-10-10-10-13-13-13-13---| x12
E|-------------------------------------------------|
Rented a house in Nisswa, Minnesota
Shrapnel and oil cans, rhubarb in the yard
I built a ladder out of metal pieces
Father was working hard
Standing beneath the oak tree by the front door
You were inside baking bread
Sister came out and put her arms around me
Blood gushing from my head
You held me in the backseat with a dishrag
Soaking up blood with your eye
I was just five and you were twenty-seven
Praying, “Don’t let my baby die.”


Chorus:
G|-----------10---12--12/14-----------|----------10---12---14----------|
D|---12-----------------------10------|--------------------------------|
A|------13------------------------8---|---------------------------10---|
E|------------------------------------|---6----------------------------|
       If you wanna leave         You just have to say

G|---------------------------------------------------12p10-------------------------|
D|-------8/10--12p10-12---12p10----------------8/10--------12---12p10--------------|
A|---8----------------------------10h12-10-8---------------------------------------|
E|---------------------------------------------------------------------------------|
  You’re all caught up inside  But you know the way

G|---------------------------------------------------12p10-------------------------|
D|-------8/10--12p10-12---12p10----------------8/10--------12---12p10--------------|
A|---8----------------------------10h12-10-8---------------------------------------|
E|---------------------------------------------------------------------------------|
  You’re all caught up inside  But you know the way


Bridge:
G|---------------12--------------|---------------------------------|
D|------------14-----------------|---------------------------------|
A|---10----12--------------------|---13----------------------------|
E|------10-----------------------|---------------------------------|
          So much more     to live your life

G|---------------12--------------|---------------------------------|
D|------------14-----------------|---------------------------------|
A|---10----12--------------------|---13----------------------------|
E|------10-----------------------|---------------------------------|
          To walk the floor   to say goodnight

G|-------------------------------|---------------------------------|
D|-------------------------------|---------------------------------|
A|---10--------------------------|---10----------------------------|
E|-------------------------------|---------------------------------|
    Do you leave your light on?   Do you leave your light on?


Outro:
You’re all caught up inside
But you know the way

G|---------------------------------------------------12p10-------------------------|
D|-------8/10--12p10-12---12p10----------------8/10--------12---12p10--------------|
A|---8----------------------------10h12-10-8---------------------------------------|
E|---------------------------------------------------------------------------------|
  You’re all caught up inside  But you know the way

G|---------------------------------------------------12p10-------------------------|
D|-------8/10--12p10-12---12p10----------------8/10--------12---12p10--------------|
A|---8----------------------------10h12-10-8---------------------------------------|
E|---------------------------------------------------------------------------------|
  You’re all caught up inside  But you know the way

G|---------------------------------------------------12p10-------------------------|
D|-------8/10--12p10-12---12p10----------------8/10--------12---12p10--------------|
A|---8----------------------------10h12-10-8---------------------------------------|
E|---------------------------------------------------------------------------------|
  You’re all caught up inside  But you know the way

G|-------------------------------------------------|
D|-------------------------------------------------|
A|---8-8-8-8-13-13-13-13-10-10-10-10-13-13-13-13---| x4 decrescendo
E|-------------------------------------------------|


************************************
| / Slide up
| h Hammer on
| p Pull-off
************************************

Almost there ...

Sign in to get your own page with links to favourite songs and more. You are just one click away...

Login with Facebook Login with Google