Log in

One click and you are in

Login with Facebook Login with Google

Why sign up and log in

Guitar Tabs Explorer
Big L bass tabs for Put it on

Bass tabs

Tuning: Standard (E A D G)


Intro:

G|--------------------------------|
D|--------------------------------|
A|7~----7-5-7~----7-5-7-7--7--7---|
E|--------------------------------|

Verse 1:

G|--------------------------------|--------------------------------|
D|------------------------6-4~----|--------------------------6~----|
A|7~----7-5-4~----4-4-5~----------|7-7~----0h4~----4h5~---4h5------|
E|--------------------------------|--------------------------------|

G|--------------------------------|--------------------------------|
D|------------------------6-4~----|--------------------------6~----|
A|7~----7-5-4~----4-4-5~----------|7-7~----0h4~----4h5~---4h5------|
E|--------------------------------|--------------------------------|

Just before Chorus:

G|--------------------------------|
D|--------------------------------|
A|7~----7-5-7~----7-5-7-7--7--7---|
E|--------------------------------|


Chorus:

G|--------------------------------|--------------------------------|
D|------------------------6-4~----|--------------------------6~----|
A|7~----7-5-4~----4-4-5~----------|7-7~----0h4~----4h5~---4h5------|
E|--------------------------------|--------------------------------|

G|--------------------------------|--------------------------------|
D|------------------------6-4~----|--------------------------6~----|
A|7~----7-5-4~----4-4-5~----------|7-7~----0h4~----4h5~---4h5------|
E|--------------------------------|--------------------------------|

Verse 2:

G|--------------------------------|--------------------------------|
D|------------------------6-4~----|--------------------------6~----|
A|7~----7-5-4~----4-4-5~----------|7-7~----0h4~----4h5~---4h5------|
E|--------------------------------|--------------------------------|

G|--------------------------------|--------------------------------|
D|------------------------6-4~----|--------------------------6~----|
A|7~----7-5-4~----4-4-5~----------|7-7~----0h4~----4h5~---4h5------|
E|--------------------------------|--------------------------------|


Chorus:

G|--------------------------------|--------------------------------|
D|------------------------6-4~----|--------------------------6~----|
A|7~----7-5-4~----4-4-5~----------|7-7~----0h4~----4h5~---4h5------|
E|--------------------------------|--------------------------------|

G|--------------------------------|--------------------------------|
D|------------------------6-4~----|--------------------------6~----|
A|7~----7-5-4~----4-4-5~----------|7-7~----0h4~----4h5~---4h5------|
E|--------------------------------|--------------------------------|


Bridge: (no bass)

G|-----------------------------------------------------------------|
D|-----------------------------------------------------------------|
A|-----------------------------------------------------------------|
E|-----------------------------------------------------------------|

G|-----------------------------------------------------------------|
D|-----------------------------------------------------------------|
A|-----------------------------------------------------------------|
E|-----------------------------------------------------------------|


Chorus:

G|--------------------------------|--------------------------------|
D|------------------------6-4~----|--------------------------6~----|
A|7~----7-5-4~----4-4-5~----------|7-7~----0h4~----4h5~---4h5------|
E|--------------------------------|--------------------------------|

G|--------------------------------|--------------------------------|
D|------------------------6-4~----|--------------------------6~----|
A|7~----7-5-4~----4-4-5~----------|7-7~----0h4~----4h5~---4h5------|
E|--------------------------------|--------------------------------|


Outro:

G|--------------------------------|--------------------------------|
D|------------------------6-4~----|--------------------------6~----|
A|7~----7-5-4~----4-4-5~----------|7-7~----0h4~----4h5~---4h5------|
E|--------------------------------|--------------------------------|

G|-----------------------------------------------------------------|
D|-----------------------------------------------------------------|
A|-----------------------------------------------------------------|
E|-----------------------------------------------------------------|

G|--------------------------------|--------------------------------|
D|------------------------6-4~----|--------------------------6~----|
A|7~----7-5-4~----4-4-5~----------|7-7~----0h4~----4h5~---4h5------|
E|--------------------------------|--------------------------------|

G|--------------------------------|--------------------------------|
D|------------------------6-4~----|--------------------------6~----|
A|7~----7-5-4~----4-4-5~----------|7-7~----0h4~----4h5~---4h5------|
E|--------------------------------|--------------------------------|

************************************

| h  Hammer-on
| ~  Vibrato

************************************
ⓘ Bass guitar tab for 'Put It On' by Big L, a male hip-hop artist from Harlem, USA. Big L was born in 1974. He passed away in 1999. Big L was known for his smooth urban/r&b music.

Almost there ...

Sign in to get your own page with links to favourite songs and more. You are just one click away...

Login with Facebook Login with Google