Log in

One click and you are in

Login with Facebook Login with Google

Why sign up and log in

Guitar Tabs Explorer
Big Country guitar chords for Promised land

Guitar chords with lyrics

Intro:

e|-----8-10-10/12-10-8h10p8-----------8-10-10/12-10-8h10p8--------|
B|-/10----------------------------/10----------------------10~~---|
G|--------------------------10~~~---------------------------------|
D|----------------------------------------------------------------|
A|----------------------------------------------------------------|
E|----------------------------------------------------------------|

e|-------12-15-15/17-15-12-15~~~--------15-17-20-17----17~~--|
B|-13h15--------------------------15h17-------------20-------|
G|-----------------------------------------------------------|
D|-----------------------------------------------------------|
A|-----------------------------------------------------------|
E|-----------------------------------------------------------|

e|------8-10-10/12-10-8h10p8------------8-10-10/12-10-8h10p8----------------------|
B|-8h10----------------------------8h10----------------------10~~--10h12p10-8~~~--|
G|---------------------------10~~~------------------------------------------------|
D|--------------------------------------------------------------------------------|
A|--------------------------------------------------------------------------------|
E|--------------------------------------------------------------------------------|


Intro 2: 00:34:

e|---------------------------|
B|-5-5--------------5-----5--|
G|-5-5--7p5---5-----5-----5--|
D|-5-5------7-------5-----5--|
A|--------------5h7-----7----|
E|---------------------------|

e|------------------------------|
B|-----5---------------5-----5--|
G|-----5--7p5---5------5-----5--|
D|-----5------7--------5-----5--| x3
A|-5h7-------------5h7-----7----|
E|------------------------------|


Verse 1: 00:51:

e|--------------------------------------------------------------------|
B|-5-5-5-----------5-5-5------------------------------5-5-5-----------|
G|-5-7-5--7p5---5--5-5-5--7p5---5---7/9-7-5--7p5---5--5-5-5--7p5---5--|
D|-5-5-5------7----5-5-5------7------------------7----7-7-7------7----|
A|--------------------------------------------------------------------|
E|--------------------------------------------------------------------|

e|----------------------------------------------------------------------|
B|-10-8-------------3-3---------------------------------3-3-------------|
G|------9-10p9-7-9--5-5-5--7p5---5-----7/9-7-5-7p5---5--5-5-5--7p5---5--|
D|------------------5-5-5------7-------------------7----5-5-5------7----|
A|----------------------------------------------------------------------|
E|----------------------------------------------------------------------|

e|--------------------------------------------------------------------|
B|-5-5-5-----------5-5-5------------------------------5-5-5-----------|
G|-5-7-5--7p5---5--5-5-5--7p5---5---7/9-7-5--7p5---5--5-5-5--7p5---5--|
D|-5-5-5------7----5-5-5------7------------------7----7-7-7------7----|
A|--------------------------------------------------------------------|
E|--------------------------------------------------------------------|

e|----------------------------------------------------------------------|
B|-10-8-------------3-3---------------------------------3-3-------------|
G|------9-10p9-7-9--5-5-5--7p5---5-----7/9-7-5-7p5---5--5-5-5--7p5---5--|
D|------------------5-5-5------7-------------------7----5-5-5------7----|
A|----------------------------------------------------------------------|
E|----------------------------------------------------------------------|


Pre-Chorus: LOADS OF DELAY: 01:24:

e|---------------------|
B|-5---3--5--1---5--3--|
G|-5---4--5--2---5--4--|
D|-5---5--5--3---7--5--| x4
A|---------------------|
E|---------------------|


Chorus: Palm Mute: 01:41:

e|-----5-------5---------10----------10---------3-------3--------------------|
B|---6---6---6---6----10----10----10----10----5---5---5---5-----3-------3----|
G|-7-------7-------10----------10-----------5-------5---------4---4---4---4--|
D|----------------------------------------------------------5-------5--------| x2
A|---------------------------------------------------------------------------|
E|---------------------------------------------------------------------------|

e|--------------------------------------------------|
B|-----1-------1-------3-------3-------5-------5----|
G|---2---2---2---2---4---4---4---4---5---5---5---5--|
D|-3-------3-------5-------5-------7-------7--------|
A|--------------------------------------------------|
E|--------------------------------------------------|


Instrumental: 02:05:

e|-----8-10-10/12-10-10h12p10\8------------8-10-10/12-10-10h12p10\8--------|
B|-/10--------------------------------8h10--------------------------10~~---|
G|------------------------------10~~~--------------------------------------|
D|-------------------------------------------------------------------------|
A|-------------------------------------------------------------------------|
E|-------------------------------------------------------------------------|

e|-------12-15-15/17-15-15-12-15~~~--------15-17-20--17------17~~--|
B|-13h15-----------------------------15h17---------------20--------|
G|-----------------------------------------------------------------|
D|-----------------------------------------------------------------|
A|-----------------------------------------------------------------|
E|-----------------------------------------------------------------|

e|------8-10-10/12-10-10h12p10\8------------8-10-10/12-10-10h12p10\8---------------------|
B|-8h10--------------------------------8h10--------------------------10~~-10h12p10-8~~~--|
G|-------------------------------10~~~---------------------------------------------------|
D|---------------------------------------------------------------------------------------|
A|---------------------------------------------------------------------------------------|
E|---------------------------------------------------------------------------------------|


Verse 2: 02:31:

e|--------------------------------------------------------------------|
B|-5-5-5-----------5-5-5------------------------------5-5-5-----------|
G|-5-7-5--7p5---5--5-5-5--7p5---5---7/9-7-5--7p5---5--5-5-5--7p5---5--|
D|-5-5-5------7----5-5-5------7------------------7----7-7-7------7----|
A|--------------------------------------------------------------------|
E|--------------------------------------------------------------------|

e|----------------------------------------------------------------------|
B|-10-8-------------3-3---------------------------------3-3-------------|
G|------9-10p9-7-9--5-5-5--7p5---5-----7/9-7-5-7p5---5--5-5-5--7p5---5--|
D|------------------5-5-5------7-------------------7----5-5-5------7----|
A|----------------------------------------------------------------------|
E|----------------------------------------------------------------------|


Pre-Chorus 2: LOADS OF DELAY: 02:49:

e|---------------------|
B|-5---3--5--1---5--3--|
G|-5---4--5--2---5--4--|
D|-5---5--5--3---7--5--| x4
A|---------------------|
E|---------------------|


Chorus 2: Palm Mute: 03:05:

e|-----5-------5---------10----------10---------3-------3--------------------|
B|---6---6---6---6----10----10----10----10----5---5---5---5-----3-------3----|
G|-7-------7-------10----------10-----------5-------5---------4---4---4---4--|
D|----------------------------------------------------------5-------5--------| x2
A|---------------------------------------------------------------------------|
E|---------------------------------------------------------------------------|

e|----------------------------------------------------------|
B|-----1-------1-------3-------3-------5-------5-------3----|
G|---2---2---2---2---4---4---4---4---5---5---5---5---4---4--|
D|-3-------3-------5-------5-------7-------7-------5--------|
A|----------------------------------------------------------|
E|----------------------------------------------------------|


Solo: 03:30:

e|--------------------------------------------------------------------------------------------|
B|--------------------------------------------------------------------------------------------|
G|--------------------2-4-5-4p2---2---2--4p2---2~------------------2-4-5-4p2---2---2-4p2---2--|
D|----------------3h5-----------5---2--------2-----------------3h5-----------5---2-------2----|
A|-3-3-3-3-3/8~-----------------------------------3-3-3-3-3/8---------------------------------|
E|--------------------------------------------------------------------------------------------|

e|------------------------------------------------|
B|------------------------------------------------|
G|------------------------------------------------|
D|-------------------5-7p5---5-7\10-7-------------|
A|-2-2-2-2-2/8~--5h7-------7------------5-5-5/10--|
E|------------------------------------------------|


Verse 3: 03:56:

e|--------------------------------------------------------------------|
B|-5-5-5-----------5-5-5------------------------------5-5-5-----------|
G|-5-7-5--7p5---5--5-5-5--7p5---5---7/9-7-5--7p5---5--5-5-5--7p5---5--|
D|-5-5-5------7----5-5-5------7------------------7----7-7-7------7----|
A|--------------------------------------------------------------------|
E|--------------------------------------------------------------------|

e|----------------------------------------------------------------------|
B|-10-8-------------3-3---------------------------------3-3-------------|
G|------9-10p9-7-9--5-5-5--7p5---5-----7/9-7-5-7p5---5--5-5-5--7p5---5--|
D|------------------5-5-5------7-------------------7----5-5-5------7----|
A|----------------------------------------------------------------------|
E|----------------------------------------------------------------------|


Pre-Chorus 3: LOADS OF DELAY: 04:12:

e|---------------------|
B|-5---3--5--1---5--3--|
G|-5---4--5--2---5--4--|
D|-5---5--5--3---7--5--| x4
A|---------------------|
E|---------------------|


Chorus 3: Palm Mute: 04:29:

e|-----5-------5---------10----------10---------3-------3--------------------|
B|---6---6---6---6----10----10----10----10----5---5---5---5-----3-------3----|
G|-7-------7-------10----------10-----------5-------5---------4---4---4---4--|
D|----------------------------------------------------------5-------5--------| x2
A|---------------------------------------------------------------------------|
E|---------------------------------------------------------------------------|

e|------------------------------------------------------------------|
B|-----1-------1-------3-------3-------5-------5-------3-------3----|
G|---2---2---2---2---4---4---4---4---5---5---5---5---4---4---4---4--|
D|-3-------3-------5-------5-------7-------7-------5-------5--------|
A|------------------------------------------------------------------|
E|------------------------------------------------------------------|


Pre-Chorus 4: LOADS OF DELAY: 04:54:

e|---------------------|
B|-5---3--5--1---5--3--|
G|-5---4--5--2---5--4--|
D|-5---5--5--3---7--5--| x4
A|---------------------|
E|---------------------|


Chorus 4: Palm Mute: 05:10:

e|-----5-------5---------10----------10---------3-------3--------------------|
B|---6---6---6---6----10----10----10----10----5---5---5---5-----3-------3----|
G|-7-------7-------10----------10-----------5-------5---------4---4---4---4--|
D|----------------------------------------------------------5-------5--------| x2
A|---------------------------------------------------------------------------|
E|---------------------------------------------------------------------------|

e|------------------------------------------------------|
B|-----1-------1-------3-------3-------5-------5----3~--|
G|---2---2---2---2---4---4---4---4---5---5---5---5--4~--|
D|-3-------3-------5-------5-------7-------7--------5~--|
A|------------------------------------------------------|
E|------------------------------------------------------|

Almost there ...

Sign in to get your own page with links to favourite songs and more. You are just one click away...

Login with Facebook Login with Google