Log in

One click and you are in

Login with Facebook Login with Google

Why sign up and log in

Guitar Tabs Explorer
Big Country bass tabs for Look away

Bass tabs

Tuning: Standard (E A D G)


Intro:
G|----------------|----------------|----------------|----------------|
D|----------------|----------------|2---2-2---2-2---|2-2---2-2-------|
A|------------0-0-|--0-0---0-0-2-4-|----------------|------------0-0-|
E|----------------|----------------|----------------|----------------|


G|----------------|----------------|----------------|----------------|
D|--------------2-|----------------|----------------|----------------|
A|--0-0---0-0-4---|4---4-4---4-4---|4-4---4-4---0-0-|--0-0---0-0-2-4-|
E|----------------|----------------|----------------|----------------|

G|----------------|----------------|----------------|----------------|
D|2---2-2---2-2---|2-2---2-2-------|--------------2-|----------------|
A|----------------|------------0-0-|--0-0---0-0-4---|4---4-4---4-4---|
E|----------------|----------------|----------------|----------------|

G|----------------|----------------|--------------------|------------------|
D|----------------|----------------|--11---11---11---11-|--11---11---9---9-|
A|4-4---4-4---0-0-|--0-0---0-0-2-4-|9----9----9----9----|9----9----7---7---|
E|----------------|----------------|--------------------|------------------|

G|----------------|----------------|----------------|----------------|----|
D|--9---9---9---9-|--6---6---6---6-|--6---6---4---4-|--4---4---4---4-|----|
A|7---7---7---7---|4---4---4---4---|4---4---2---2---|2---2---2---2---|2---|
E|----------------|----------------|----------------|----------------|----|

1st Verse:
G|----------------|----------------|----------------|----------------|
D|2-2---2-2-------|----------------|----------------|----------------|
A|------------2-2-|--4-4-----------|----------------|4-4---4-4-------|
E|----------------|----------------|----------------|------------4-4-|

G|----------------|----------------|----------------|----------------|
D|----------------|----------------|2-2---2-2-------|----------------|
A|----------------|----------------|------------2-2-|--4-4-----------|
E|--0-0-----------|----------------|----------------|----------------|

G|----------------|----------------|----------------|----------------|
D|----------------|----------------|----------------|----------------|
A|----------------|4-4---4-4-------|----------------|----------------|
E|----------------|------------4-4-|--0-0-----------|----------------|

G|----------------|----------------|----------------|----------------|
D|----------------|----------------|----------------|----------------|
A|----------------|----------------|----------------|----------------|
E|4-4---4-4---5-5-|--7-7-----------|----------------|5-5---5-5---7-7-|

G|----------------|----------------|----------------|----------------|
D|----------------|----------------|--2---2-----2---|----------------|
A|----------------|----------------|--------------2-|----4---4-----4-|
E|--9-9-----------|----------------|----------------|----------2-----|

G|----------------|----------------|----------------|----------------|
D|----------------|----------------|----------------|----------------|
A|--4-------4-2---|2---------------|----------------|----------------|
E|----------------|--4---2-----2---|--2-0-0-0-0-0-0-|0-0-0-0-0-0-0---|

2nd Verse:
G|----------------|----------------|----------------|----------------|
D|2-2---2-2-------|----------------|----------------|----------------|
A|------------2-2-|--2-4-2---------|7-9-7-----------|----------------|
E|----------------|--------4-----7-|------9---7-9---|9-9---9-9---7-7-|

G|----------------|----------------|----------------|----------------|
D|----------------|--6-------------|----------------|----------------|
A|----7-----------|7---9-7-----7---|7-7---7-7---2-2-|--2-4-2---------|
E|--7---9-7-----7-|--------9-7-----|----------------|--------4-----7-|

G|----------------|----------------|----------------|----------------|
D|----------------|----------------|----------------|--6-----9-6-----|
A|7-9-7-----------|----------------|----7-----------|7---9-7-----7---|
E|------9---7-9---|9-9---9-9---7-7-|--7---9-7-----7-|----------------|

G|----------------|----------------|----------------|----------------|
D|----------------|--------------4-|------6-4-------|----------------|
A|----------------|----6-----6-----|----6-----6-----|----------------|
E|4-4---4-4---5-5-|--7-------------|------------7---|5-5---5-5---7-7-|

G|----------------|----------------|----------------|----------------|
D|--------------4-|------6-4-------|--2---2-----2---|----------------|
A|--4-7-----7-----|----7-----7-4---|--------------2-|----4---4-----4-|
E|----------------|----------------|----------------|----------2-----|

G|----------------|----------------|----------------|----------------|
D|----------------|----------------|----------------|----------------|
A|--4-------4-2---|2---------------|----------------|----------------|
E|----------------|--4---2-----2---|--2-0-0-0-0-0-0-|0-0-0-0-0-0-0---|


Chorus:
G|----------------|----------------|----------------|----------------|
D|----2-2-2-2-2-2-|----------------|----------------|----2---2-------|
A|----------------|4---4-2---4-----|4-2---4-----4-0-|0-0-------0-0---|
E|----------------|----------------|----------------|--------------4-|

G|----------------|----------------|----------------|----------------|
D|----------------|----------------|----2---2-------|----------------|
A|2---2-0---2-----|2-0---2-----2-0-|0-0-------2-2-0-|4---4-2---4-----|
E|----------------|----------------|----------------|----------------|

G|----------------|----------------|----------------|----------------|
D|----------------|----2---2-------|----------------|----------------|
A|4-2---4-----4-0-|0-0-------0-0---|2---2-0---2-----|2-0---2-----2-0-|
E|----------------|--------------4-|----------------|----------------|

G|----------------|----------------|----------------|----------------|
D|----2---2-------|----------------|----------------|----------------|
A|0-0-------2-2-0-|4---4---4-4-2---|2---2-2-0---0---|0-0-------------|
E|----------------|----------------|----------------|----2---2---2-2-|

G|----------------|----------------|
D|----------------|----------------|
A|----------------|----------------|
E|0-0-0-0-0-0-0-0-|0-0-0-0-0-------|

3rd Verse - Repeat 2nd verse:

Repeat Chorus:

Repeat Intro:

Extra:
G|--------------------|
D|2-2---2-2-----------|
A|------------2-2---4-|
E|--------------------|

4th Verse:
G|----------------|----------------|----------------|----------------|
D|2-2---2-2-------|----------------|----------------|----------------|
A|------------2-2-|--4-4-----------|----------------|4-4---4-4-------|
E|----------------|----------------|----------------|------------4-4-|

G|----------------|----------------|----------------|----------------|
D|----------------|----------------|2-2---2-2-------|----------------|
A|----------------|----------------|------------2-2-|--4-4-----------|
E|--0-0-----------|----------------|----------------|----------------|

G|----------------|----------------|----------------|----------------|
D|----------------|----------------|----------------|----------------|
A|----------------|4-4---4-4-------|----------------|----------------|
E|----------------|------------4-4-|--0-0-----------|----------------|

G|----------------|----------------|----------------|----------------|
D|----------------|--------------4-|------6-4-------|----------------|
A|----------------|----6-----6-----|----6-----6-----|----------------|
E|4-4---4-4---5-5-|--7-------------|------------7---|5-5---5-5---7-7-|

G|----------------|----------------|----------------|----------------|
D|--------------4-|------6-4-------|--2---2-----2---|----------------|
A|--4-7-----7-----|----7-----7-4---|--------------2-|----4---4-----4-|
E|----------------|----------------|----------------|----------2-----|

G|----------------|----------------|----------------|----------------|
D|----------------|----------------|----------------|----------------|
A|--4-------4-2---|2---------------|----------------|----------------|
E|----------------|--4---2-----2---|--2-0-0-0-0-0-0-|0-0-0-0-0-0-0---|

Repeat Chorus x2:
ⓘ Bass guitar tab for 'Look Away' by Big Country, a rock band formed in 1981 from Dunfermline

Almost there ...

Sign in to get your own page with links to favourite songs and more. You are just one click away...

Login with Facebook Login with Google