Log in

One click and you are in

Login with Facebook Login with Google

Why sign up and log in

Guitar Tabs Explorer
Bif Naked tabs for Tango shoes

Guitar tabs

Album: Purge
As tabbed by Joe Muggah


Verse 1A (Guitar 1)
e--------4-----------2-------------------------------------
B--9-----6-----------4-------------------------------------
G--9-----6-----5-----4-------------------------------------
D--9--x--6--x--6-----4-----4-4-4-4-4-----------------------
A--7--x--4--x--6--x--2--x--4-4-4-4-4-----------------------
E--------------4--x-----x--0-2-0-2-0-----------------------
("When we're together...")
Verse 1B (Guitar 2)
e-------------------4--------------------------------------
B-----9------5------4------5-5-5-5-------------------------
G-----9------6-------------6-4-6-4-------------------------
D----------------------------------------------------------
A--7------4------------------------------------------------
E----------------4------0----------------------------------


Verse 2
e------4-4--------2--2----------------------------2-2-2-2--
B--/9--6-6--------4--4-------------/9--6-6--------4-4-4-4--
G--/9--6-6--5--5--4--4-------------/9--6-6--5--5--4-4-4-4--
D--/9--6-6--6--6--4--4--4-4-4-4-4--/9--6-6--5--5--4-4-4-4--
A--/7--4-4--6--6--2--2--4-4-4-4-4--/7--4-4--6--6--2-2-2-2--
E-----------4--4--------0-2-0-2-0-----------4--4-----------


Chorus
e----------------------------------------------------------
B----------------------------------------------------------
G----------------------------6--6--6-6-6--6--6--6--9-9-9---
D--7--7--7-7-7--4--4--4-4-4--6--6--6-6-6--6--6--6--9-9-9---
A--7--7--7-7-7--4--4--4-4-4--4--4--4-4-4--4--4--4--7-7-7---
E--5--5--5-5-5--2--2--2-2-2--------------------------------
("My new tango shoes...")

(continued)
e----------------------------------------------------------
B----------------------------------------------------------
G----------------------------6--6--6-6-6--6--6--6--4-4-4---
D--7--7--7-7-7--4--4--4-4-4--6--6--6-6-6--6--6--6--4-4-4---
A--7--7--7-7-7--4--4--4-4-4--4--4--4-4-4--4--4--4--2-2-2---
E--5--5--5-5-5--2--2--2-2-2--------------------------------

(continued)
e----------------------------------------------------------
B----------------------------------------------------------
G----------------------------6--6--6-6-6--9--9--9-9-9------
D--7--7--7-7-7--4--4--4-4-4--6--6--6-6-6--9--9--9-9-9------
A--7--7--7-7-7--4--4--4-4-4--4--4--4-4-4--7--7--7-7-7------
E--5--5--5-5-5--2--2--2-2-2--------------------------------

(continued)
e----------------------------------------------------------
B----------------------------------------------------------
G----------------------------------------------------------
D--7--7--7-7-7--4------------------------------------------
A--7--7--7-7-7--4------------------------------------------
E--5--5--5-5-5--2------------------------------------------

Riff 1
e----------------------------------------------------------
B----------------------------------------------------------
G----------------------------------------------------------
D--4--4-4-4-4-4-4-4---4--4-4-4-4-4-4-4---------------------
A--4--4-4-4-4-4-4-4---4--4-4-4-4-4-4-4---------------------
E--2--0-2-0-2-0-0-0---2--0-2-0-2-0-0-0---------------------


Bridge A chord diagramA augmentedA (Guitar 1)
e----------------------------------------------------------
B----------------------------------------------------------
G--4-4-4-4--4-4-4--4-4-4-4--4-4-4--6-6-6-6--6-6-6--6-6-6-6-
D--4-4-4-4--4-4-4--4-4-4-4--4-4-4--6-6-6-6--6-6-6--6-6-6-6-
A--2-2-2-2--2-2-2--2-2-2-2--2-2-2--4-4-4-4--4-4-4--4-4-4-4-
E----------------------------------------------------------

(continued)
e----------------------------------------------------------
B----------------------------------------------------------
G--6-6-6---------------------------------------------------
D--6-6-6--7-7-7-7--7-7-7--7-7-7-7--7-7-7--4-4-4-4--4-4-4---
A--4-4-4--7-7-7-7--7-7-7--7-7-7-7--7-7-7--4-4-4-4--4-4-4---
E---------5-5-5-5--5-5-5--5-5-5-5--5-5-5--2-2-0-2--2-2-2---

(continued)
e----------------------------------------------------------
B----------------------------------------------------------
G----------------------------------------------------------
D--4-4-4-4--4-4-4------------------------------------------
A--4-4-4-4--4-4-4------------------------------------------
E--2-2-0-2--2-2-2------------------------------------------


Bridge A chord diagramBB (Guitar 2)
e--0-0-0--0-0-0--0-0-0--0-0-0--0-0-0--0-0-0--0-0-0--0-0-0--
B--4-4-4--5-5-5--7-7-7--5-5-5--7-7-7--5-5-5--4-4-4--5-5-5--
G--4-4-4--4-4-4--4-4-4--4-4-4--6-6-6--6-6-6--6-6-6--6-6-6--
D--4-4-4--4-4-4--4-4-4--4-4-4--6-6-6--6-6-6--6-6-6--6-6-6--
A----------------------------------------------------------
E----------------------------------------------------------


Riff 2
e----------------------------------------------------------
B----------------------------------------------------------
G----------------------------------------------------------
D----------------------------------------------------------
A--7---4-------2---------------7---4-------2---2-2-2-2-----
E----------4-------0-2-0-2-0-----------4-------------------


Verse 1A, 1B

Verse 2

Chorus

Verse 1A, 1B

Verse 2

Chorus

Riff 1

Bridge A, A chord diagramBB

Verse 1B, Riff 2

Verse 1A, 1B

Chorus

Verse 1A, 1B


_________________________________________________________________
ⓘ Guitar tab for 'Tango Shoes' by Bif Naked, a female alternative rock artist. Bif Naked was born in 1971.

Almost there ...

Sign in to get your own page with links to favourite songs and more. You are just one click away...

Login with Facebook Login with Google