Search tabs and chords

Search for song, artist or band

Log in

One click and you are in

Login with Facebook Login with Google

Why sign up and log in

Guitar Tabs Explorer
Justin Bieber guitar tabs for She dont like the lights acoustic

She Don't Like The Lights Acoustic tab by Justin Bieber

Justin Bieber guitar tabs for She dont like the lights acoustic

Guitar tabs

  • Capo on 4th
She Don't Like The Lights (Acoustic) - Justin Bieber

Tuning: Standard Capo on 4th

Intro

    A chord diagramE minorEm                         A chord diagramD MajorD
e|--0--------0--0--------0-----2--------2--2---------------------------------|
B|-----0-----------0--------------3-----------3-----2------------------------|
G|--------0-----------0--------------2-----------2---------------------------|
D|--2-----------2--------------0-----------0---------------------------------|
A|---------------------------------------------------------------------------|
E|---------------------------------------------------------------------------|
    A chord diagramC majorC                          A chord diagramA minorAm                                                 x2
e|---------------------------------------------------------------------------|
B|--1--------1--1--------------1--------1--1---------------------------------|
G|-----0-----------0-----0--------2-----------2-----2------------------------|
D|--------2-----------2--------------2-----------2---------------------------|
A|--3-----------3--------------0-----------0---------------------------------|
E|---------------------------------------------------------------------------|

Rest of the song uses these same chords in the same order over and over again.

************

| /   slide up
| \   slide down
| h   hammer-on
| p   pull-off
| ~   vibrato
| +   harmonic
| x   Mute note
| b   Bend
| pb  Pre-bend
| br  Bend release
| pbr Pre-bend release
| brb Bend release bend

************

Other versions of She Don't Like The Lights Acoustic

She don't like the lightsChords
Shedon'tlikethelightsacousticChords

Almost there ...

Sign in to get your own page with links to favourite songs and more. You are just one click away...

Login with Facebook Login with Google